ConnexionConnexionInscription
B E A D G
126 connectés Aller à Sweepyto Guitare

The Black Keys - Dead and gone [ Artiste ]

Publié par le
31/07/2012
2953 vues
Débutant 4
http://www.youtube.com/watch?v=PvfN2Wvwevo
    
        

“Intro” 

Drums 

G----------------------|
D---------------7------|
A—9-9-7-9-7-9-9—-9-9-7-| X 5
E----------------------|	                              	                                                                                                                                                         

G-------------------------------------------------------------------
D-----------------------9-9-7-9-7-9-9-7-9-9-7-----------------------
A---------------7--------------------------------------------7------
E-9-9-7-9-7-9-9---9-9-7------------------------9-9-7-9-7-9-9--9-9-7-			    								                     

G----------------------|-------------------------------------------------------------------
D---------------7------|-----------------------9-9-7-9-7-9-9-7-9-9-7-----------------------
A—9-9-7-9-7-9-9—-9-9-7-|---------------7--------------------------------------------7------ 
E----------------------|9-9-7-9-7-9-9----9-9-7------------------------9-9-7-9-7-9-9---9-9-7-				    								                     

G----------------------|
D---------------7------|
A—9-9-7-9-7-9-9—-9-9-7-| ...So long...
E----------------------|

G----------------------|----------------------------------------------------------------------
D---------------7------|-----------------------9-9-7-9-9-7-9-9-7-9-9-7------------------------
A—9-9-7-9-7-9-9—-9-9-7-|---------------7----------------------------------------------7------- 
E----------------------|9-9-7-9-7-9-9----9-9-7--------------------------9-9-7-9-7-9-9---9-9-7-

...Alone...
G----------------------|---------------------------------------------------------------------
D---------------7------|-----------------------9-9-7-9-9-7-9-9-7-9-9-7-----------------------
A—9-9-7-9-7-9-9—-9-9-7-|---------------7---------------------------------------------7------- 
E----------------------|9-9-7-9-7-9-9---9-9-7--------------------------9-9-7-9-7-9-9---9-9-7-

“Chorus”

G---------------------|------------------------------------------------------------------
D---------------------|-----------------------9-9-9-9-9-9-9-9----------------------------
A—9-9-9-9-9-9-9—7-9-7-|------------------------------------------------------------------
E---------------------|9-9-9-9-9-9-9-9-7-9-7------------------9-9-9-9-9-9-9-7-9----------
						           
G---------------------|------------------------------------------------------------------
D---------------------|-----------------------9-9-9-9-9-9-9-9----------------------------
A—9-9-9-9-9-9-9—7-9-7-|------------------------------------------------------------------
E---------------------|9-9-9-9-9-9-9-9-7-9-7------------------9-9-9-9-9-9-9-9----------

”Solo”

G----------------------|-------------------------------------------------------------------
D---------------7------|-----------------------9-9-7-9-7-9-9-7-9-9-7-----------------------
A—9-9-7-9-7-9-9—-9-9-7-|---------------7--------------------------------------------7------ 
E----------------------|9-9-7-9-7-9-9----9-9-7------------------------9-9-7-9-7-9-9---9-9-7-

G----------------------|
D---------------7------|
A—9-9-7-9-7-9-9—-9-9-7-| X2 ...So long...
E----------------------|

G----------------------|-------------------------------------------------------------------
D---------------7------|-----------------------9-9-7-9-7-9-9-7-9-9-7-----------------------
A—9-9-7-9-7-9-9—-9-9-7-|---------------7--------------------------------------------7------ 
E----------------------|9-9-7-9-7-9-9----9-9-7------------------------9-9-7-9-7-9-9---9-9-7-

G----------------------|-------------------------------------------------------------------
D---------------7------|-----------------------9-9-7-9-7-9-9-7-9-9-7-----------------------
A—9-9-7-9-7-9-9—-9-9-7-|---------------7--------------------------------------------7------ 
E----------------------|9-9-7-9-7-9-9----9-9-7------------------------9-9-7-9-7-9-9---9-9-7-


“Chorus”

G---------------------|------------------------------------------------------------------
D---------------------|-----------------------9-9-9-9-9-9-9-9----------------------------
A—9-9-9-9-9-9-9—7-9-7-|------------------------------------------------------------------
E---------------------|9-9-9-9-9-9-9-9-7-9-7------------------9-9-9-9-9-9-9-7-9-7-9------
						           
G---------------------|------------------------------------------------------------------
D---------------------|-----------------------9-9-9-9-9-9-9-9----------------------------
A—9-9-9-9-9-9-9—7-9-7-|------------------------------------------------------------------
E---------------------|9-9-9-9-9-9-9-9-7-9-7------------------9-9-9-9-9-9-9-9-9---------


G----------------------|
D---------------7------|
A—9-9-7-9-7-9-9—-9-9-7-| X 2
E----------------------|	                              	                                                                                                                                                         

“Outro”

G----------------------|----------------------------------------------------------------------|
D---------------7------|-----------------------9-9-7-9-7-9-9-7-9-9-7--------------------------|
A—9-9-7-9-7-9-9—-9-9-7-|---------------7--------------------------------------------7---------| X3 
E----------------------|9-9-7-9-7-9-9----9-9-7------------------------9-9-7-9-7-9-9---9-9-(7)*|


(*) ne se joue pas à la note finale

    
    

0 Commentaires : réagissez !

1 2 3 4 5
1 note
Notes pour Dead And Gone Basse Tab - (The Black Keys) | Slappyto : 5/5 sur 1 note
Aucun commentaire !

En Live

Itchy67000 vient tout juste de rejoindre la communauté Slappyto. Bienvenue ! il y a 2 jours
Petifumiste a commenté le topic [Ibanez BTB 555 MP 380€] de petifumiste il y a 2 jours
Didier ridoux a commenté le topic [Fernandes APB-100] de Axel Faure il y a 2 jours
Didier ridoux vient tout juste de rejoindre la communauté Slappyto. Bienvenue ! il y a 2 jours
Lardon : Nouvel interview il y a 3 jours
Harryknot vient tout juste de rejoindre la communauté Slappyto. Bienvenue ! il y a 3 jours
Dambass vient tout juste de rejoindre la communauté Slappyto. Bienvenue ! il y a 3 jours
ZumZum et djeroon ont commenté le topic [Octaver ou 5ème corde (Si/B)? ] de djeroon il y a 4 jours
Reymo a commenté le topic [Super Alim pour pedalboard ] de ilanonbass il y a 6 jours