ConnexionConnexionInscription
B E A D G
131 connectés Aller à Sweepyto Guitare

Kings Of Leon - Closer [ Artiste ]

Publié par le
03/08/2012
2769 vues
Débutant 2
http://www.youtube.com/watch?v=lkGhDHP093M
    
        

**************************
* Kings of Leon : Closer *
**************************

mesure = 4/4, tempo = 80, subdivision (-) = double-croche
suggestion de réglages :
    micro : 100% chevalet
    EQ = 50% bass / 50% mid / 50% treble

Intro :
 |: 3x           :|: 2x                                             :|
G|----------------|----------------|----------------|----------------|----------------|----------------|2----------/4\--|
D|----------------|----------------|0---------------|----------------|----------------|0---------------|----------------|
A|----------------|2---------------|----------------|0---------------|2---------------|----------------|----------------|
E|----------------|----------------|----------------|----------------|----------------|----------------|----------------|

Couplet :
 |: 3x                                             :|
G|----------------|----------------|----------------|
D|----------------|0---------------|----------------|
A|2---------------|----------------|0---------------|
E|----------------|----------------|----------------|

Refrain :
G|----------------|----------------|2-----------4\--|----------------|----------------|----------------|
D|----------------|0---------------|----------------|----------------|0---------------|----------------|
A|2---------------|----------------|----------------|2---------------|----------------|0---------------|
E|----------------|----------------|----------------|----------------|----------------|----------------|

Couplet 2 :
 |: 2x                                             :|
G|----------------|----------------|----------------|----------------|----------------|2----------46-\-|
D|----------------|0---------------|----------------|----------------|0---------------|----------------|
A|2---------------|----------------|0---------------|2---------------|----------------|----------------|
E|----------------|----------------|----------------|----------------|----------------|----------------|

Refrain 2 :
G|----------------|----------------|2--------46--4--|----------------|----------------|----------------|
D|----------------|0---------------|----------------|----------------|0---------------|----------------|
A|2---------------|----------------|----------------|2---------------|----------------|0---------------|
E|----------------|----------------|----------------|----------------|----------------|------------3---|

G|----------------|----------------|----------------|
D|----------------|0---------------|----------------|
A|2---------------|----------------|0---------------|
E|----------------|----------------|----------------|

Couplet 3 :
 |: 2x                                             :|
G|----------------|----------------|----------------|----------------|----------------|2-----------6-\-|
D|----------------|0---------------|----------------|----------------|0---------------|----------------|
A|2---------------|----------------|0---------------|2---------------|----------------|----------------|
E|----------------|----------------|----------------|----------------|----------------|----------------|

Refrain 3 :
G|----------------|----------------|----------------|----------------|----------------|2---------6--4--|
D|----------------|0---------------|----------------|----------------|0---------------|----------------|
A|2---------------|----------------|0---------------|2---------------|----------------|----------------|
E|----------------|----------------|----------------|----------------|----------------|----------------|

G|----------------|----------------|----------------|----------------|----------------|----------------|
D|----------------|0---------------|----------------|----------------|0---------------|----------------|
A|2---------------|----------------|0---------------|2---------------|----------------|0---------------|
E|----------------|----------------|----------------|----------------|----------------|------------3---|

Finale :
G|----------------|----------------|----------------|----------------|----------------|----------------|
D|----------------|0-----------4-\-|------------4-\-|----------------|0-----------4-\-|------------4-\-|
A|2---------------|----------------|0---------------|2-------------4-|----------------|0---------------|
E|----------------|----------------|----------------|----------------|----------------|----------------|

G|----------------|----------------|----------------|----------------|----------------|----------------|
D|----------------|0---------------|----------------|----------------|----------------|----------------|
A|2-----------2-0-|----------------|0---------------|2---------------|----------------|----------------|
E|----------------|----------------|----------------|----------------|----------------|----------------|


=========================================================================================================================
Légende : \ = glissé vers le bas
          / = glissé vers le haut
          |: Nx :| = répéter N fois le passage entre |: et :|
=========================================================================================================================

Visitez http://www.ilovetabs.com pour d'autres tablatures "+R" pour guitare basse.

    
    

0 Commentaires : réagissez !

1 2 3 4 5
1 note
Notes pour Closer Basse Tab - (Kings Of Leon) | Slappyto : 5/5 sur 1 note
Aucun commentaire !

En Live

Itchy67000 vient tout juste de rejoindre la communauté Slappyto. Bienvenue ! il y a 2 jours
Petifumiste a commenté le topic [Ibanez BTB 555 MP 380€] de petifumiste il y a 2 jours
Didier ridoux a commenté le topic [Fernandes APB-100] de Axel Faure il y a 2 jours
Didier ridoux vient tout juste de rejoindre la communauté Slappyto. Bienvenue ! il y a 2 jours
Lardon : Nouvel interview il y a 3 jours
Harryknot vient tout juste de rejoindre la communauté Slappyto. Bienvenue ! il y a 3 jours
Dambass vient tout juste de rejoindre la communauté Slappyto. Bienvenue ! il y a 3 jours
ZumZum et djeroon ont commenté le topic [Octaver ou 5ème corde (Si/B)? ] de djeroon il y a 4 jours
Reymo a commenté le topic [Super Alim pour pedalboard ] de ilanonbass il y a 6 jours