ConnexionConnexionInscription
B E A D G
155 connectés Aller à Sweepyto Guitare

Mayer Hawthorne - Henny and Gingerale [ Artiste ]

Publié par le
16/09/2012
6811 vues
Moyen 1
http://www.youtube.com/watch?v=Y_eSBOhTQiE
    
        

G||-----------------------|--7-----------9--7--5--|-----------------5-----|---------------------|
D||-----------------------|-----------------------|--------------7-----7--|---------------------|
A||--------------5--5--3--|-----------------------|-----------------------|----------------3----|
E||-----------------------|-----------------------|--5--------------------|-----------5---------|



G||--------------------7--|--9--------------------|-----------------------|------------5--------|
D||-----------------------|--------------------5--|--7--------------------|---------------7--7--|
A||--5-----------3--------|--------------3--------|-----------------------|---------------------|
E||-----------------5-----|-----------------5-----|--------------3--5--5--|---------------------|
    
    

0 Commentaires : réagissez !

1 2 3 4 5
1 note
Notes pour Henny And Gingerale Basse Tab - (Mayer Hawthorne) | Slappyto : 5/5 sur 1 note
Aucun commentaire !

En Live

Yvesson a commenté le topic [Amateurs de photographie, bon-jour/soir !] de cha0s-the0ry il y a 51 minutes
Yvesson a commenté le topic [Le Topic du Freepost 7] de Vikie il y a 59 minutes
Yvesson, sam et YannGGP ont commenté le topic [La mort de Slappyto?] de kurt il y a 1 heure
Glimmerkajal vient tout juste de rejoindre la communauté Slappyto. Bienvenue ! il y a 2 jours
Wario a commenté le topic [videothèque des sons] de mr gone il y a 1 semaine
Lebollos59 vient tout juste de rejoindre la communauté Slappyto. Bienvenue ! il y a 1 semaine
GregRock vient tout juste de rejoindre la communauté Slappyto. Bienvenue ! il y a 1 semaine
Chris927 vient tout juste de rejoindre la communauté Slappyto. Bienvenue ! il y a 2 semaines
Greeshma vient tout juste de rejoindre la communauté Slappyto. Bienvenue ! il y a 2 semaines