ConnexionConnexionInscription
B E A D G
143 connectés Aller à Sweepyto Guitare

Thelma Houston - Don't leave me this way [ Artiste ]

Publié par le
18/08/2012
22306 vues
Avancé 1
http://www.youtube.com/watch?v=4yiGi481w3k
    
        

Telma Houston
Don't leave me this way

-------------------------------------------------------------------------------------------------------
Transcriptions pour bassistes au format guitar pro et pdf -> http://junk1000.free.free.fr/menutabs.html
-------------------------------------------------------------------------------------------------------

Intro
     Eb                                            Bb                                            
G||--------------------|--------------5S--3-----|-----------------3-5-3--|--L--------3----------|
D||--------------------|---------------------3--|------------------------|----------------------|
A||--6--------5--------|--3---------------------|--1-----------1---------|----------------1--3--|
E||--------------------|------------------------|------------------------|----------------------|


  Cm                                                     Ab                                                  
--------------------------|---------------------------|--------------------------|--------------------------|
--------------------------|---------------------------|--------------------------|--------------------------|
--3---------3-3--3--------|--3--3------3-3--3-----5-6-|--------------------------|--------------------------|
-----------------------3--|---------------------------|--4--4------4-4--4------4-|--4--4------4-4--4-----6--|


  Eb         Dm            Cm                        Bb                                                  
------------------------|-------------------------|--------------------------|--------------------------|
------------------------|---------------------3-5-|------------3-----------3-|----------3---------------|
--6--6-------5--5-------|--3--3-------3--3--------|--1--1--------1--1--------|--1--1------3-1--1----1-2-|
------------------------|-------------------------|--------------------------|--------------------------|


Couplet

  Cm          Fm            Bb                                                 Eb                     
G||-------------------------|------------------------|-------------------------|------------------------|
D||-------------------------|------------------------|-------------------------|------------------------|
A||--3--3----6-7-8--8----8--|--1--1------1-1--1------|--1--1------1-1-------5--|--6--6------6-6--6------|
E||-------------------------|------------------------|------------------8------|------------------------|


  Bb           Cm          F                           Bb                         Cm                      
------------------------|---------------------------|--------------------------|-------------------------|
---------8--------------|---------------------------|--------------------------|-------------------------|
-----------8------------|-----------------------3---|--1--1------1-1--1----2-3-|--3--3----6-7-8--8----8--|
--6----------6-8--------|--1--1------1-1--1-------1-|--------------------------|-------------------------|


  Bb                                                    Eb                       Bb           Cm        
--------------3--3------3-|--5-3-------3-------------|------------------------|------------------------|
----------------------3---|------3-------3-----------|------------------------|---------8--------------|
--1--1------1-------------|--------1-------1----3----|--6--6------6-6--6------|-----------8------------|
--------------------------|--------------------------|------------------------|--6----------6-8--------|


  Fm                       Bb                      C                                               
------------------------|--------------------3--|----------------------|-----5-----5-----5-----5--|
------------------------|-----------------------|----------------------|--------------------------|
------------------------|--1--1------1--1-------|--3----3----3----3----|--3-----3-----3-----3-----|
--1--1------1---1-3---5-|-----------------------|----------------------|--------------------------|




Refrain
    C                          Bb                          C                                                       
|-----------------3-5------|--3--3-----3---------------|------------------3-5------|--3--3------------------|
|-------------3-5-------5--|---------3---3-------------|--------------3-5-------5--|------------3-3---------|  3x
|--3--3--------------------|---------------1--1-----1--|-----3-----3---------------|--------------------1---|
|--------------------------|---------------------------|---------------------------|------------------------|


   G                                                                   
------12------12------12------12--|------12------12------12------12--||
----------------------------------|----------------------------------||
--10------10------10------10------|--10------10------10------10------||
----------------------------------|----------------------------------||

    
    

0 Commentaires : réagissez !

1 2 3 4 5
2 notes
Notes pour Don't Leave Me This Way Basse Tab - (Thelma Houston) | Slappyto : 4/5 sur 2 notes
Aucun commentaire !

En Live

Yvesson a commenté le topic [Le Topic du Freepost 7] de Vikie il y a 1 heure
Yvesson, sam et YannGGP ont commenté le topic [La mort de Slappyto?] de kurt il y a 1 heure
Glimmerkajal vient tout juste de rejoindre la communauté Slappyto. Bienvenue ! il y a 2 jours
Wario a commenté le topic [videothèque des sons] de mr gone il y a 1 semaine
Lebollos59 vient tout juste de rejoindre la communauté Slappyto. Bienvenue ! il y a 1 semaine
GregRock vient tout juste de rejoindre la communauté Slappyto. Bienvenue ! il y a 1 semaine
Chris927 vient tout juste de rejoindre la communauté Slappyto. Bienvenue ! il y a 2 semaines
Greeshma vient tout juste de rejoindre la communauté Slappyto. Bienvenue ! il y a 2 semaines