ConnexionConnexionInscription
B E A D G
147 connectés Aller à Sweepyto Guitare

Ben l'oncle soul - L'ombre d'un homme [ Artiste ]

Publié par le
18/08/2012
10878 vues
Débutant 1
http://www.deezer.com/fr/music/ben-l-oncle-soul...
    
        

L'ombre d'un homme
Ben l'Onle Soul

signature 3/4, tempo 135


Couplet 1 & 2 sur 16 mesures

    Gm       Dm        Gm        Dm      C#m    Cm         Gm           D#      Dm        Gm                          
G||-----|--|------|--|------|--|------|------|--------|--|--------|--|--------|--------|--------|--|
D||-----|--|------|--|------|--|------|------|--------|--|--------|--|--------|--------|--------|--|  X2
A||-----|--|--5---|--|------|--|--5---|--4---|--3-----|--|--------|--|--6-----|--5-----|--------|--|
E||-3---|--|------|--|--3---|--|------|------|--------|--|--3-----|--|--------|--------|--3-----|--|


                    
Fin de couplet

   D#      Dm        Gm                          
|--------|--------|--------|--|
|--------|--------|--------|--| 
|--6-----|--5-----|--------|--|
|--------|--------|--3-----|--|



Refrain (Partie 1)

     D#                        F                             D                   Gm        D#     D         
G||------|--|------|--------|------|--|------|----------|------|--|------|--|------|--|------|------|
D||------|--|------|--------|------|--|------|----------|------|--|------|--|------|--|------|------|
A||--6---|--|--6---|---6--7-|--8---|--|--8---|--8--7-6--|--5---|--|--5---|--|------|--|--6---|--5---|
E||------|--|------|--------|------|--|------|----------|------|--|------|--|--3---|--|------|------|
       

Refrain (Partie 2)

     Gm        Cm        Gm        D         Gm     F      Em     D#     A         D                         
G||------|--|------|--|------|--|------|--|------|------|------|------|------|--|------|--|
D||------|--|------|--|------|--|------|--|------|------|------|------|------|--|------|--|
A||------|--|--3---|--|------|--|--5---|--|------|------|------|--6---|------|--|--5---|--|
E||--3---|--|------|--|--3---|--|------|--|--3---|--1---|--0---|------|--5---|--|------|--|



Transition (1:32-1:42)

     Gm        Dm                                                    
G||------|--|------|--|
D||------|--|------|--| 2x
A||------|--|--5---|--|
E||--3---|--|------|--|



----------------
Couplet
Fin de couplet
----------------


Refrain (Partie 1) avec des variations (2:10 - 2:52)

     D#                        F                   D                   Gm    Fill 2:27   D#                       
G||------|--|------|--------|------|--|------|--|------|--|------|--|------|-------3--|----|-------------|
D||------|--|------|--------|------|--|------|--|------|--|------|--|------|-----3----|--5-|--5----------|
A||--6---|--|--6---|--6--7--|--8---|--|--8---|--|--5---|--|--5---|--|------|--5-------|----|------5---5--|
E||------|--|------|--------|------|--|------|--|------|--|------|--|--3---|----------|----|--------3----|



     D#      fill 2:33     D#                F                   D                  Gm         D#     D                         
G||-------|--------------|-----|-----------|----|--|------|--|------|--|------|--|------|--|------|------|
D||-------|--------------|-----|-----------|----|--|------|--|------|--|------|--|------|--|------|------|
A||--6----|---------6----|--6--|---6----7--|--8-|--|--8---|--|--5---|--|--5---|--|------|--|--6---|--5---|
E||-------|--6---8----8--|-----|-----------|----|--|------|--|------|--|------|--|--3---|--|------|------|


      
Refrain (Partie 2) 2X (attention au ré# à 3:23)


Final (3:34 à la fin)

  Gm        F         Em        D#     D              
------|--|------|--|------|--|------|------||
------|--|------|--|------|--|------|------||
------|--|------|--|--7---|--|--6---|--5---||
--3---|--|--1---|--|------|--|------|------||

-------------------------------------------------------------------------------------------------------
Transcriptions pour bassistes au format guitar pro et pdf -> http://junk1000.free.free.fr/menutabs.html
-------------------------------------------------------------------------------------------------------
    
    

0 Commentaires : réagissez !

1 2 3 4 5
0 notes
Aucun commentaire !

En Live

Escaliyo et grobass ont commenté le topic [HELP CONFIG AMPLI !] de JR BASS il y a 1 heure
Escaliyo a voté pour le message de grobass il y a 1 heure
Escaliyo a commenté le topic [Basse pour débuter ] de Patmustang il y a 9 heures
Ray a voté pour le message de grobass il y a 20 heures
Jerem65 et grobass ont commenté le topic [Et vous, vous écoutez quoi maintenant ?] de nono il y a 20 heures