ConnexionConnexionInscription
B E A D G
152 connectés Aller à Sweepyto Guitare

Donna Summer - Love To Love You Baby [ Artiste ]

Publié par le
17/09/2012
8221 vues
Moyen 1
http://www.youtube.com/watch?v=V5AztWseIdU
    
        

Intro :

G |----------|----------|----------|
D |--3-------|--1-------|----------|
A |-----1----|----------|--5-------|
E |----------|-----4----|-----3----|


Riff #1 :

G |-----------5-----------3--------3-----3--5----------|-----------5-----2--3-~---------2-----3------|
D |-----------------------------------------------4----|--5------------------------------------------|
A |--3-------------------------------------------------|-----3~--------------------------------------|
E |----------------------------------------------------|---------------------------------------------|



Break #1:

G |----------------|----------------|----------------|
D |--3--3----------|--1--1----------|----------------|
A |--------1--1----|----------------|--5--5----------|
E |----------------|--------4--4----|--------3--3----|


Riff principal :

G |-----------5--------3-----------3-----3--5----------|-----------5--------3-~---------2-----3------|
D |-----------------5-----------------------------4----|--5--------------5---------------------------|
A |--3--3--3-------------------------------------------|-----3~--------------------------------------|
E |----------------------------------------------------|---------------------------------------------|


Break #2 :

G |-----------5----------------------------------------|---------------------------------------------|
D |-----------------------------------------------4----|--5------------------------------------------|
A |--3--3--3-------------------------------------------|-----3---------------------------------------|
E |----------------------------------------------------|---------------------------------------------|


Transpositions du Riff principal en Ré, Sib, Mib, Fa#, etc. sur les parties piano et flûte.

Break #3 :

G |----------------------------------------------------------|
D |----------------------------------------------------------|
A |--3--3--3--3--3-------------------------------------------|
E |----------------------------------------------------------|
    
    

3 Commentaires

1 2 3 4 5
4 notes
Notes pour Love To Love You Baby Basse Tab - (Donna Summer) | Slappyto : 5/5 sur 4 notes
#3
03/10/2012 10:13:43

Bien vu. Je pense que les 4 dernières notes du riff sont jouées sur la corde de ré d'où le petit vibrato sur sib et ça marche très bien au mediator.

Meilleur retranscription du web (ou j'ai vu tout et n'importe-quoi sur ce morceau même chez les ricains)

0
0
#2
23/09/2012 12:46:05

Bien sympathique à jouer  

0
0
#1
21/09/2012 14:13:32

Superbe partie de basse, que du bonheur  

0
0

En Live

Wario a commenté le topic [videothèque des sons] de mr gone il y a 5 jours
Lebollos59 vient tout juste de rejoindre la communauté Slappyto. Bienvenue ! il y a 5 jours
GregRock vient tout juste de rejoindre la communauté Slappyto. Bienvenue ! il y a 6 jours
Chris927 vient tout juste de rejoindre la communauté Slappyto. Bienvenue ! il y a 1 semaine
Greeshma vient tout juste de rejoindre la communauté Slappyto. Bienvenue ! il y a 1 semaine
Ludo ZEFISH vient tout juste de rejoindre la communauté Slappyto. Bienvenue ! il y a 1 semaine
Nicobass1793 vient tout juste de rejoindre la communauté Slappyto. Bienvenue ! il y a 1 semaine
Indonesiae vient tout juste de rejoindre la communauté Slappyto. Bienvenue ! il y a 1 semaine
Grandbill a commenté la tablature de Coup_de_pelle il y a 1 semaine