ConnexionConnexionInscription
B E A D G
146 connectés Aller à Sweepyto Guitare

Fishbone - Give It Up [ Artiste ]

Publié par le
17/10/2012
3017 vues
Moyen 1
http://www.youtube.com/watch?v=-v2gStdtX44
    
        

Riff principal : 

G:|------------------------------
D:|---------------0--------------
A:|---1-3-3-3-3-3----1--1---1-3--
E:|-3---------------------3------

Quelques variations :

G:|-----------------------------
D:|---------------0-------------
A:|---1-3-3-3-3-3----1--1-3--3--
E:|-3--------------------------- Apparaît lorsqu'on entend un léger arrêt sur un demi temps

G:|-------------------------------
D:|---------------0---------------
A:|---1-3-3-3-3-3----1--1-3/8-8\--
E:|-3----------------------------- Apparaît une seule fois, a peut prêt à 1:10

G:|-------------------------------
D:|---------------0---------------
A:|---1-3-3-3-3-3----1--1-3-1-3---
E:|-3----------------------------- Apparaît une ou deux fois dans le morceau. 

Break : 2:38

G:|-----------------|
D:|-----------------|
A:|-----------------|
E:|-x-x-x-x-x-x-x-x-| X8

Fin : riff principal 

G:|------------------------------
D:|---------------0--------------
A:|---1-3-3-3-3-3----1--1---1-3--
E:|-3---------------------3------


PS : tablature créée pour luthor59 :) 
    
    

9 Commentaires

1 2 3 4 5
3 notes
Notes pour Give It Up Basse Tab - (Fishbone) | Slappyto : 5/5 sur 3 notes
#9
27/07/2013 18:18:07

T'en fais pas, apparemment tu as dû rectifier   

 

Sympa à jouer hein ?   

0
0
#8
11/07/2013 17:01:23
me suis trompée, je voulais mettre 5/5  
0
0
#7
17/10/2012 12:13:03
Merci beaucoup Narsow....
y a plus qu'a la bosser...
0
0
#6
17/10/2012 11:46:52
Merci l'ami amuse toi bien avec les tablatures de fishbone
0
0
#5
17/10/2012 11:45:46

::::::::::::: 

0
0

En Live

Wario a commenté le topic [videothèque des sons] de mr gone il y a 5 jours
Lebollos59 vient tout juste de rejoindre la communauté Slappyto. Bienvenue ! il y a 5 jours
GregRock vient tout juste de rejoindre la communauté Slappyto. Bienvenue ! il y a 6 jours
Chris927 vient tout juste de rejoindre la communauté Slappyto. Bienvenue ! il y a 1 semaine
Greeshma vient tout juste de rejoindre la communauté Slappyto. Bienvenue ! il y a 1 semaine
Ludo ZEFISH vient tout juste de rejoindre la communauté Slappyto. Bienvenue ! il y a 1 semaine
Nicobass1793 vient tout juste de rejoindre la communauté Slappyto. Bienvenue ! il y a 1 semaine
Indonesiae vient tout juste de rejoindre la communauté Slappyto. Bienvenue ! il y a 1 semaine
Grandbill a commenté la tablature de Coup_de_pelle il y a 1 semaine