ConnexionConnexionInscription
B E A D G
115 connectés Aller à Sweepyto Guitare

Red Hot Chili Peppers - Coffee Shop [ Artiste ]

Publié par le
13/10/2012
7385 vues
Shredder
http://www.youtube.com/watch?v=BrCQFnjr-xk
    
        

  Gtr I
|---------|---------|---------|-----|
|---------|---------|---------|-----|
|---------|---------|---------|-----|
|---------|---------|---------|-----|


|-------------------------|--------------2---------|--------------------------|
|-----2--2-----2--2---2---|-----2--2-----------5---|-----2--2-----2--2---2----|
|-------------------------|------------------------|--------------------------|
|-0-x------0-x------0---0-|-0-x------0-x---0-3---3-|-0-x------0-x------0---0--|


                           Verse
|--------------2---------||-------------------------|--------------2---------|
|-----2--2-----------5---||-----2--2-----2--2---2---|-----2--2-----------5---|
|------------------------||-------------------------|------------------------|
|-0-x------0-x---0-3---3-||-0-x------0-x------0---0-|-0-x------0-x---0-3---3-|


|-------------------------|--------------2---------|--------------------------|
|-----2--2-----2--2---2---|-----2--2-----------5---|-----2--2-----2--2---2----|
|-------------------------|------------------------|--------------------------|
|-0-x------0-x------0---0-|-0-x------0-x---0-3---3-|-0-x------0-x------0---0--|


|--------------2---------|-------------------------|--------------2---------|
|-----2--2-----------5---|-----2--2-----2--2---2---|-----2--2-----------5---|
|------------------------|-------------------------|------------------------|
|-0-x------0-x---0-3---3-|-0-x------0-x------0---0-|-0-x------0-x---0-3---3-|


|-------------------------|--------------2---------|--------------------------|
|-----2--2-----2--2---2---|-----2--2-----------5---|-----2--2-----2--2---2----|
|-------------------------|------------------------|--------------------------|
|-0-x------0-x------0---0-|-0-x------0-x---0-3---3-|-0-0------0-0------0---0--|


                           Chorus
|--------------2---------||-------------------|---------------------------|
|-----2--2-----------5---||-------------------|-------2-------------------|
|------------------------||-------------------|----------0h2p0---0h2p0----|
|-0-0------0-0---0-3---3-||-5--5-x-x-3-3-x--0-|-(0)-0----------3-------3--|


|-------------------|--------------------------|
|-------------------|-------2------------------|
|-0--0-----3-3------|----------0h2p0---0h2p0---|
|------0-0-----0--0-|-(0)-0----------3-------3-|


|------------------|----------------------|
|------------------|-----------4----------|
|------------------|----------------------|
|-5--5-x-x-3-3-0-2-|-(2)-2-2-2---3-3-0-2--|


|--------------------|-------------------||
|--------------------|-------------------||
|--------------------|-------------------||
|-(2)-2-2-0-0-8-8--5-|-(5)-5-5-5-5-5-5-5-||


|-------------------------|--------------2-----------|
|-----2--2-----2--2---2---|-----2--2-----------5-----|
|-------------------------|--------------------------|
|-0-x------0-x------0---0-|-0-x------0-x---0-3---3---|


                                                     Verse
|-------------------------|--------------2---------||--------------------------|
|-----2--2-----2--2---2---|-----2--2-----------5---||-----2--2-----2--2---2----|
|-------------------------|------------------------||--------------------------|
|-0-x------0-x------0---0-|-0-x------0-x---0-3---3-||-0-x------0-x------0---0--|


|--------------2---------|-------------------------|--------------2---------|
|-----2--2-----------5---|-----2--2-----2--2---2---|-----2--2-----------5---|
|------------------------|-------------------------|------------------------|
|-0-x------0-x---0-3---3-|-0-x------0-x------0---0-|-0-x------0-x---0-3---3-|


|-------------------------|--------------2---------|--------------------------|
|-----2--2-----2--2---2---|-----2--2-----------5---|-----2--2-----2--2---2----|
|-------------------------|------------------------|--------------------------|
|-0-x------0-x------0---0-|-0-x------0-x---0-3---3-|-0-x------0-x------0---0--|


                           Chorus
|--------------2---------||------------------|
|-----2--2-----------5---||------------------|
|------------------------||------------------|
|-0-x------0-x---0-3---3-||-5--5-x-x-3-3-x-0-|


|------------------------|--------------------|
|-----2------------------|--------------------|
|--------0h2p0---0h2p0---|----------3-3-------|
|-0-0----------3-------3-|-5--5-x-x-----x-0---|


|------------------------|------------------|
|-----2------------------|------------------|
|--------0h2p0---0h2p0---|------------------|
|-0-0----------3-------3-|-5--5-x-x-3-3-0-2-|


|---------------------|----------------------|
|-----------4---------|----------------------|
|---------------------|-------------3-3------|
|-(2)-2-2-2---3-3-0-2-|-(2)-2-2-0-0------5---|


                    1st Bass Solo
|-----------------||------------------------------------|
|-----------------||-----14--14---------x---------------|
|-----------------||------------12h14-x-----------------|
|-5-5-5-5-5-5-5-5-||-0-x------------------x-x-10h12-x-x-|


|---------------------------------------------|
|---------------12p11h12p11h12p11h12p11h12p11-|
|---------10----------------------------------|
|-10h12-x-----x-------------------------------|


|--------------------------12h14-----|-14--12--12p11------------|
|-----14--14---------x-----------0-x-|---------------12-(12)-12-|
|------------12h14-x-----------------|--------------------------|
|-0-x------------------x-x-----------|--------------------------|


|---------------------------------------------------|
|-12h14p12h14-11h12p11h12---------------------------|
|-------------------------10h12p10h12---------------|
|-------------------------------------10h12p10h12---|


|-------------------------------|------------------------------------|
|-----x--x---------x------------|---------------12---x--------12-----|
|----------------x---x-x--------|-------x-10--x----x---x-x-10--------|
|-0-x------10h12---------10h12--|-10h12--------------------------x-x-|


|---------------------------------||
|-------x--x---x-----------x------||
|------------x----x-12h14----x-x--||
|-10h12---------------------------||


 Interlude
|---9---7--6---x-------|-------------------|---9---7--6---x--------|
|--------------------0-|----5--7----9s17--|-----------------------|
|-7----------x---x-x---|-7-------0---------|-7----------x---x-x-4--|
|----------------------|-------------------|-----------------------|


|-----------7---6---------|---9---7--6---x-------|---------12S14---14---|
|--------6----------7p5p0-|----------------------|---------11S12---12---|
|-(4)-5-------0---0-------|-7----------x---x-x---|-x-x------------------|
|-------------------------|--------------------3-|-----0---------0------|


                          ~~~~~~~~~~~~~~~
|---9---7--6---x-------|------------------||--------------------|
|----------------------|------------------||--------------------|
|-7----------x---x-x---|-10b11--10--9--8--||--------------------|
|--------------------3-|------------------||-0-0-0-0-0-0-0-0-0--|


|-------------------|-------------------|------------------------||
|-------------------|-------------------|------------------------||
|-------------------|-------------------|------------------------||
|-0-0-0-0-0-0-0-0-0-|-0-0-0-0-0-0-0-0-0-|-0-0-0-0-0-0-0-0-0-0-0--||


 Chorus
|------------------|--------------------------|------------------|
|------------------|-------2------------------|------------------|
|------------------|----------0h2p0---0h2p0---|----------3-3-----|
|-5--5-x-x-3-3-x-0-|-(0)-0----------3-------3-|-5--5-x-x-----x-0-|


|--------------------------|------------------|---------------------|
|-------2------------------|------------------|-----------4---------|
|----------0h2p0---0h2p0---|------------------|---------------------|
|-(0)-0----------3-------3-|-5--5-x-x-3-3-0-2-|-(2)-2-2-2---3-3-0-2-|


                                           2nd Bass Solo
|--------------------|-------------------||----------------------------|
|--------------------|-------------------||-----------5-(5)------------|
|-------------3-3----|-------------------||-----5s7-7-------7-7-5h7-5--|
|-(2)-2-2-0-0------5-|-(5)-5-5-5-5-5-5-5-||-0-0------------------------|


|-----------------------------|---------------------7---7h9-7---|
|-----------5-(5)-------5-7-5-|-7S9-7-5-7-5-----7S9---9-------9-|
|-----5s7-7-------7-7-7-------|-------------7-5-----------------|
|-0-0-------------------------|---------------------------------|


|-7s9-7---7-9-9-9S12-12-12-(12)-12-12-----|
|-------9-----------------------------12--|
|-----------------------------------------|
|-----------------------------------------|


|-------12----14b15-14-14b15-(14)-14b15-14b15-(14)-12----12-|
|-12s14----14-----------------------------------------14----|
|-----------------------------------------------------------|
|-----------------------------------------------------------|


|-14b15-14-14b15-(14)-14b15-14b15--12-----------------|----------------------------------------------|
|-------------------------------------14-x-12-14-14-x-|-12h14-14-14-(14)-12-------------17-(17)-14---|
|-----------------------------------------------------|---------------------14-15-15-15------------0-|
|-----------------------------------------------------|----------------------------------------------|


|-------------------------------------------------|
|-------14-------17-16-14----------------------12-|
|-14h15----14h15----------12-15-15-12-14-14-14----|
|-------------------------------------------------|


|----------------------------12-----------|----------------------------12-------------|
|-------------12----12-13-14----14-12-14--|-------------12----12-13-14----14-12-14---|
|-14-12-13-14----14-----------------------|-14-12-13-14----14-------------------------|
|-----------------------------------------|-------------------------------------------|


|-------------------------12h14-14-14-14-14-|
|----------12----12-13-14-------------------|
|-12-13-14----14----------------------------|
|-------------------------------------------|


                                             Outro
|-19-19-18-(18)-18-16-16-------------------||----------------------------|
|------------------------17-17-16-16-14-14-||-----2--2-----2--2---2---2--|
|------------------------------------------||----------------------------|
|------------------------------------------||-0-0------0-0------0---0----|


|----------------2---------|---------------------------|
|-----2--2---2---------5---|-----2--2-----2--2---2---2-|
|--------------------------|---------------------------|
|-0-0------0---0---0-3---3-|-0-0------0-0------0---0---|


|----------------2---------|----------|-----*|
|-----2--2---2---------5---|----------|-----*|
|--------------------------|----------|-----*|
|-0-0------0---0---0-3---3-|-0--------|-----*|
    
    

0 Commentaires : réagissez !

1 2 3 4 5
0 notes
Aucun commentaire !

En Live

Glimmerkajal vient tout juste de rejoindre la communauté Slappyto. Bienvenue ! il y a 2 jours
Wario a commenté le topic [videothèque des sons] de mr gone il y a 1 semaine
Lebollos59 vient tout juste de rejoindre la communauté Slappyto. Bienvenue ! il y a 1 semaine
GregRock vient tout juste de rejoindre la communauté Slappyto. Bienvenue ! il y a 1 semaine
Chris927 vient tout juste de rejoindre la communauté Slappyto. Bienvenue ! il y a 2 semaines
Greeshma vient tout juste de rejoindre la communauté Slappyto. Bienvenue ! il y a 2 semaines
Ludo ZEFISH vient tout juste de rejoindre la communauté Slappyto. Bienvenue ! il y a 2 semaines
Nicobass1793 vient tout juste de rejoindre la communauté Slappyto. Bienvenue ! il y a 2 semaines
Indonesiae vient tout juste de rejoindre la communauté Slappyto. Bienvenue ! il y a 2 semaines