ConnexionConnexionInscription
B E A D G
144 connectés Aller à Sweepyto Guitare

Kool & the Gang - Hollywood Swinging [ Artiste ]

Publié par le
14/10/2012
3151 vues
Débutant 3
http://www.youtube.com/watch?v=rD-VvbGa8H4
    
        

Intro : 

G|--------------------------------------------|
D|-------------------4-5-6--------------------|
A|----------5---------------------------------|
E|-0------------------------------0-0-0-------|

Riff 1: 

G|--------------------------------------------|
D|----------6-4----------4-5-6---6-4----------|
A|--------------7--------------------7--------|
E|-0--0--0---------0-0-0----------------0-0-0-|X15

Riff 2: vous pouvez faire des variations

G|--------------------------------------------|
D|--------------------------------------------|
A|-7------------7-----------------------------|
E|---0--0--0------0--0--0-0-0-----------------|X18

G|-------------------------------------------------|
D|----------------------------4-5-6---6-4----------|
A|-7-----------7--------------------------7--------|
E|--0--0--0------0--0--0-0-0-----------------0-0-0-|

G|---------------------------------------------|
D|----------6-4-----------4-5-6---6-4----------|
A|--------------7---------------------7--------|
E|-0--0--0---------0-0-0-----------------0-0-0-|

G|----------------------------------------------|
D|----------6-4--------------------6-4----------|
A|--------------7----------------------7--------|
E|-0--0--0---------0-0-0---0--0--0--------0-0-0-|

End : 

G|--------------------------|
D|-6-4----------------------|
A|-----7--------------------|
E|-------0-0-0--------------| jusqu'à la fin


Note : attention aux espaces des Mi à vide, important pour le tempo de la musique
    
    

0 Commentaires : réagissez !

1 2 3 4 5
0 notes
Aucun commentaire !

En Live

Glimmerkajal vient tout juste de rejoindre la communauté Slappyto. Bienvenue ! il y a 2 jours
Wario a commenté le topic [videothèque des sons] de mr gone il y a 1 semaine
Lebollos59 vient tout juste de rejoindre la communauté Slappyto. Bienvenue ! il y a 1 semaine
GregRock vient tout juste de rejoindre la communauté Slappyto. Bienvenue ! il y a 1 semaine
Chris927 vient tout juste de rejoindre la communauté Slappyto. Bienvenue ! il y a 2 semaines
Greeshma vient tout juste de rejoindre la communauté Slappyto. Bienvenue ! il y a 2 semaines
Ludo ZEFISH vient tout juste de rejoindre la communauté Slappyto. Bienvenue ! il y a 2 semaines
Nicobass1793 vient tout juste de rejoindre la communauté Slappyto. Bienvenue ! il y a 2 semaines
Indonesiae vient tout juste de rejoindre la communauté Slappyto. Bienvenue ! il y a 2 semaines