ConnexionConnexionInscription
B E A D G
134 connectés Aller à Sweepyto Guitare

Fishbone - Ugly [ Artiste ]

Publié par le
17/10/2012
2581 vues
Moyen 1
http://www.deezer.com/track/1053954
    
        

Intro Clavier : 

G:|----------------------------------
D:|----------------------------------
A:|-1-----1-----4-4-4-4--2-1---1-----
E:|----2-----2---------------4---2--- x3

Intro basse : 

G:|--------------------------
D:|-------7------------------
A:|-0-4-7---7-5-4------5-5---
E:|---------------7-5--------
+
Riff principal : +

G:|--------------------------
D:|-------7------------------
A:|-0-4-7---7-5-4------5555--
E:|---------------7-5-------- x14

Break : 
                                    
G:|----------------------------------|    |------------------------------------
D:|--------------------------6666----|    |------------------------------------
A:|-----5-5-4444---------5-5-----7777|    |-----5-5-4444---------5-5-----------
E:|-5-5---------7777-5-5-------------|x3  |-5-5---------7777-5-5-----44440000--

Riff principal x14
Break 
Riff principal x4


Break et fin
                                    
G:|----------------------------------|
D:|--------------------------6666----|
A:|-----5-5-4444---------5-5-----7777|
E:|-5-5---------7777-5-5-------------|x2

G:|-------------------------------------------------------------------
D:|-------------------------------------------------------------------
A:|-----5-5-4-4---------5-5-4-4---------55554444--------5555----------
E:|-5-5---------7-7-5-5---------7-7-5555--------77775555----444400005-
    
    

1 Commentaire

1 2 3 4 5
1 note
Notes pour Ugly Basse Tab - (Fishbone) | Slappyto : 5/5 sur 1 note
#1
15/11/2012 16:24:29

Fishbone powwwwweeeeeeerrrrr

0
+1

En Live

Wario a commenté le topic [videothèque des sons] de mr gone il y a 5 jours
Lebollos59 vient tout juste de rejoindre la communauté Slappyto. Bienvenue ! il y a 5 jours
GregRock vient tout juste de rejoindre la communauté Slappyto. Bienvenue ! il y a 6 jours
Chris927 vient tout juste de rejoindre la communauté Slappyto. Bienvenue ! il y a 1 semaine
Greeshma vient tout juste de rejoindre la communauté Slappyto. Bienvenue ! il y a 1 semaine
Ludo ZEFISH vient tout juste de rejoindre la communauté Slappyto. Bienvenue ! il y a 1 semaine
Nicobass1793 vient tout juste de rejoindre la communauté Slappyto. Bienvenue ! il y a 1 semaine
Indonesiae vient tout juste de rejoindre la communauté Slappyto. Bienvenue ! il y a 1 semaine
Grandbill a commenté la tablature de Coup_de_pelle il y a 1 semaine