ConnexionConnexionInscription
B E A D G
134 connectés Aller à Sweepyto Guitare

Heatwave - Boogie Nights [ Artiste ]

Publié par le
20/10/2012
8262 vues
Moyen 1
http://www.youtube.com/watch?v=2XEmFuEbpzM
    
        

Intro : x3

G|-9---11----9---------|-----------------------|-------9-----------------|-----------------------|
D|---9----12---9-12----|-9-------------------9-|-12------10-12----10-----|-----------------------|
A|------------------12-|---10-12-------10-12---|----12---------12----10--|-12-8-10------8-10-12--|
E|---------------------|---------10-12---------|-------------------------|---------8-10----------|

Riff 1 : x4

G|---------11----9-----------|
D|-------9----12-------------|
A|-7---------------7----5-6--|
E|---------------------------| 

break :

G|---------------------------------------------|
D|---------------------------------------------|
A|--------------------------------2-2--2-2-2---|
E|-5--5-5---3-3--3-3---2-2--2-2----------------|


Riff 1 x4
Break 
Riff 1 x2

riff 2 : x2

G|------------------------5------|------------------------5------|
D|--------------------5-7-----7--|--------------------5-7-----7--|
A|------5--5-7----5-7------------|------7--7-5----5-7------------|
E|-5--5--------------------------|-5--5--------------------------|

Riff 1 x2
Break
Riff1 x6
Break 
Riff 1 x2

Riff 3 : x4

G|---------11----9-----------|---------9----7-----------|
D|-------9----12-------------|-------7---10-------------|
A|-7---------------7----7-6--|-5--------------5----5-6--|
E|---------------------------|--------------------------|

Outro : jusqu'à la fin

G|-9---11----9---------|-----------------------|-------9-----------------|-----------------------|
D|---9----12---9-12----|-9-------------------9-|-12------10-12----10-----|-----------------------|
A|------------------12-|---10-12-------10-12---|----12---------12----10--|-12-8-10------8-10-12--|
E|---------------------|---------10-12---------|-------------------------|---------8-10----------| 
    
    

0 Commentaires : réagissez !

1 2 3 4 5
1 note
Notes pour Boogie Nights Basse Tab - (Heatwave) | Slappyto : 5/5 sur 1 note
Aucun commentaire !

En Live

Glimmerkajal vient tout juste de rejoindre la communauté Slappyto. Bienvenue ! il y a 2 jours
Wario a commenté le topic [videothèque des sons] de mr gone il y a 1 semaine
Lebollos59 vient tout juste de rejoindre la communauté Slappyto. Bienvenue ! il y a 1 semaine
GregRock vient tout juste de rejoindre la communauté Slappyto. Bienvenue ! il y a 1 semaine
Chris927 vient tout juste de rejoindre la communauté Slappyto. Bienvenue ! il y a 2 semaines
Greeshma vient tout juste de rejoindre la communauté Slappyto. Bienvenue ! il y a 2 semaines
Ludo ZEFISH vient tout juste de rejoindre la communauté Slappyto. Bienvenue ! il y a 2 semaines
Nicobass1793 vient tout juste de rejoindre la communauté Slappyto. Bienvenue ! il y a 2 semaines
Indonesiae vient tout juste de rejoindre la communauté Slappyto. Bienvenue ! il y a 2 semaines