ConnexionConnexionInscription
B E A D G
128 connectés Aller à Sweepyto Guitare

New order - State Of The Nation [ Artiste ]

Publié par le
23/10/2012
3121 vues
Débutant 1
http://www.youtube.com/watch?feature=player_det...
    
        

Jouer au médiatror

INTRO             
                         7x   
G|-------------------------|
D|o-----------------------o|
A|o-----------------------o|
E|-------------------------|

   
G|-----------------------|----------------------|---------------------|
D|-----------------------|----------------------|---------------------|
A|-----------------------|----------------------|---------------------|
E|----------------12\----|\0--------------------|-------------(0)-3-0-|

        
G|---------------------|----------------------|
D|---------------------|----------------------|
A|--3------------------|----------------------|
E|---------------------|---------------12\----|

COUPLETS
  
G||--------------------------------|-------------------------------|
D||o-------------------------------|-------------------------------|
A||o-------------------------------|-------------------------------|
E||-\0----0----0----0h5----3---0---|-0----0----0----0h5----3---0---|

 
G|-----------------------------|--------------------------------||
D|-----------------------------|-------------------------------o||
A|-3----3----3----3----3---3---|-2----2----2----5----7---------o||
E|-----------------------------|--------------------------------||

Répété ce riff tout le long du morceau. Ne pas jouer entre 4:58 et 5:15, et entre 5:31 et 5:48.

   
G|-----------------------||
D|-----------------------||
A|-----------------------||
E|-0---------------------||

    
    

2 Commentaires

1 2 3 4 5
0 notes
#2
17/09/2013 14:09:47
exellent  moi qui suis fan des new order  cool
0
+1
#1
30/10/2012 16:39:31

un petit coup de new wave !!

0
0

En Live

Yvesson a commenté le topic [Le Topic du Freepost 7] de Vikie il y a 15 secondes
Yvesson, YannGGP et sam ont commenté le topic [La mort de Slappyto?] de kurt il y a 58 secondes
Glimmerkajal vient tout juste de rejoindre la communauté Slappyto. Bienvenue ! il y a 2 jours
Wario a commenté le topic [videothèque des sons] de mr gone il y a 1 semaine
Lebollos59 vient tout juste de rejoindre la communauté Slappyto. Bienvenue ! il y a 1 semaine
GregRock vient tout juste de rejoindre la communauté Slappyto. Bienvenue ! il y a 1 semaine
Chris927 vient tout juste de rejoindre la communauté Slappyto. Bienvenue ! il y a 2 semaines
Greeshma vient tout juste de rejoindre la communauté Slappyto. Bienvenue ! il y a 2 semaines
Ludo ZEFISH vient tout juste de rejoindre la communauté Slappyto. Bienvenue ! il y a 2 semaines