ConnexionConnexionInscription
B E A D G
146 connectés Aller à Sweepyto Guitare

M - Onde Sensuelle [ Artiste ]

Publié par le
26/10/2012
11467 vues
Débutant 2
http://www.youtube.com/watch?v=tbYAMlNvQSI
    
        

G |------------------------------------------------|------------------------------------------------|
D |------------------------------------------------|------------------------------------------------|
A |--4--4--------4-----------4--4--------6---------|--11-11-------11-------11-10-10-------10--------|
E |-----------------------4------------------------|------------------------------------------------|

G |------------------------------------------------|------------------------------------------------|
D |------------------------------------------------|------------------------------------------------|
A |--4--4--------4-----------4--4--------4---------|--6--6--------6-----------6--6--------6---------|
E |-----------------------4------------------------|-----------------------6------------------------|

  |-------------------------------------------------|
  |-------------------------------------------------|
  |--11-11-------11-------11-10-10-10----------10---|
  |-------------------------------------------------|

G |----------------------------------------------------|----------------------------------------------|
D |--------------------5-----6-----------6--5-----6----|--5--------5----------------------------------|
A |--8--------8--------------------------------8-------|--------------------8-----7-------------------|
E |----------------------------------------------------|--------------------------------8-------------|

  |----------------------------------------------------|-----------------8----------|
  |--------------------5-----6-----------6-----7-------|--8-----8--9--10----10------|
  |--8--------8----------------------------------------|----------------------------|
  |----------------------------------------------------|----------------------------|
    
    

0 Commentaires : réagissez !

1 2 3 4 5
0 notes
Aucun commentaire !

En Live

Cell a commenté le topic ["recherche" Digitech bass synth wah] de Cell il y a 3 heures
Cell et yvesson ont commenté le topic [Le Topic du Freepost 7] de Vikie il y a 3 heures
Cell a commenté le topic ["recherche" Digitech bass synth wah] de Cell il y a 3 heures
Yvesson a commenté le topic [Amateurs de photographie, bon-jour/soir !] de cha0s-the0ry il y a 16 heures
Yvesson, sam et YannGGP ont commenté le topic [La mort de Slappyto?] de kurt il y a 16 heures
Glimmerkajal vient tout juste de rejoindre la communauté Slappyto. Bienvenue ! il y a 3 jours
Wario a commenté le topic [videothèque des sons] de mr gone il y a 1 semaine
Lebollos59 vient tout juste de rejoindre la communauté Slappyto. Bienvenue ! il y a 1 semaine
GregRock vient tout juste de rejoindre la communauté Slappyto. Bienvenue ! il y a 1 semaine
Chris927 vient tout juste de rejoindre la communauté Slappyto. Bienvenue ! il y a 2 semaines