ConnexionConnexionInscription
B E A D G
147 connectés Aller à Sweepyto Guitare

Bruno Mars - Treasure [ Artiste ]

Publié par le
27/12/2012
11399 vues
Débutant 3
    
        

Intro:

G|-----------------------------------------------------------|
D|-----------------------------------------------------------|
A|-----------------------------------------------------------|
E|---566666--------------------------------------------------|

couplet et refrain:

G|--------------------------------55-------------------------|
D|---6---------33--------5-----------------------------------|
A|------------------------------3------3h6p3-----------------| 
E|-4-----4-3-1----1-1--3----3-6-------6-----6----------------|


fin de couplet et de refrain:

G|-----------------------------------------------------------|
D|---6---------33--------------------------------------------|
A|------------------------------\13-13-13-13-13-13-13/-------| 
E|-4-----4-3-1----1-1--\6-6-6-6------------------------------|
    
    

2 Commentaires

1 2 3 4 5
0 notes
0
0
#1
21/12/2012 16:56:54

Voilà une petite ligne de basse bien funky de Bruno Mars. En espérant qu'elle vous plaise!

"May the groove be with u!"

0
+1

En Live

Wario a commenté le topic [videothèque des sons] de mr gone il y a 2 jours
Lebollos59 vient tout juste de rejoindre la communauté Slappyto. Bienvenue ! il y a 3 jours
GregRock vient tout juste de rejoindre la communauté Slappyto. Bienvenue ! il y a 3 jours
Chris927 vient tout juste de rejoindre la communauté Slappyto. Bienvenue ! il y a 1 semaine
Greeshma vient tout juste de rejoindre la communauté Slappyto. Bienvenue ! il y a 1 semaine
Ludo ZEFISH vient tout juste de rejoindre la communauté Slappyto. Bienvenue ! il y a 1 semaine
Nicobass1793 vient tout juste de rejoindre la communauté Slappyto. Bienvenue ! il y a 1 semaine
Indonesiae vient tout juste de rejoindre la communauté Slappyto. Bienvenue ! il y a 1 semaine
Grandbill a commenté la tablature de Coup_de_pelle il y a 1 semaine