ConnexionConnexionInscription
B E A D G
126 connectés Aller à Sweepyto Guitare

Zaz - Je Veux [ Artiste ]

Publié par le
27/12/2012
10965 vues
Débutant 4
http://www.youtube.com/watch?v=Tm88QAI8I5A
    
        

G ||----------7--7--------------------7--7-------------|
D ||o--------------------------------------------------|
A ||o5--------------------5--5--------------------5----|
E ||---------------------------------------------------|


-----------7--7------------------------------------||
--------------------------------------------------o||
--5--------------------3--------------------------o||
--------------------------6-----------8------------||


|-------------7-----------9-----------10------------|
|o--------------------------------------------------|
|o5--------------------------------------------5----|
|---------------------------------------------------|


--------------7-----------9-----------7-------------|
----------------------------------------------------|
--5--------------------------------------------3----|
----------------------------------------------------|


--------------5-----------7-----------9-------------|
----------------------------------------------------|
--3--------------------------------------------3----|
----------------------------------------------------|


--------------5-----------7-----------5-------------|
----------------------------------------------------|
--3--------------------------------------------1----|
----------------------------------------------------|


--------------3-----------5-----------7-------------|
----------------------------------------------------|
--1--------------------------------------------1----|
----------------------------------------------------|


--------------3-----------5-----------3-------------|
----------------------------------------------------|
--1-------------------------------------------------|
-----------------------------------------------3----|


----------------------------------------------------|
--------------0-----------5-----------0-------------|
----------------------------------------------------|
--3-------------------------------------------------|


---------------------------------------------------||
--------------2-----------7--------------------0--o||
--------------------------------------------------o||
--5--------------------------------0--5------------||
    
    

0 Commentaires : réagissez !

1 2 3 4 5
1 note
Notes pour Je Veux Basse Tab - (Zaz) | Slappyto : 4/5 sur 1 note
Aucun commentaire !

En Live

Wario a commenté le topic [videothèque des sons] de mr gone il y a 2 jours
Lebollos59 vient tout juste de rejoindre la communauté Slappyto. Bienvenue ! il y a 3 jours
GregRock vient tout juste de rejoindre la communauté Slappyto. Bienvenue ! il y a 3 jours
Chris927 vient tout juste de rejoindre la communauté Slappyto. Bienvenue ! il y a 1 semaine
Greeshma vient tout juste de rejoindre la communauté Slappyto. Bienvenue ! il y a 1 semaine
Ludo ZEFISH vient tout juste de rejoindre la communauté Slappyto. Bienvenue ! il y a 1 semaine
Nicobass1793 vient tout juste de rejoindre la communauté Slappyto. Bienvenue ! il y a 1 semaine
Indonesiae vient tout juste de rejoindre la communauté Slappyto. Bienvenue ! il y a 1 semaine
Grandbill a commenté la tablature de Coup_de_pelle il y a 1 semaine