ConnexionConnexionInscription
B E A D G
157 connectés Aller à Sweepyto Guitare

Stuck In The Sound - Let's Go [ Artiste ]

Publié par le
10/01/2013
6236 vues
Moyen 1
http://www.youtube.com/watch?v=52Gg9CqhbP8
    
        

*********************************
* Stuck in the Sound : Let's Go *
*********************************

mesure = 2/4, tempo = 90, subdivision (-) = double-croche
suggestion de réglages :
    micro : 50% manche / 50% chevalet
    EQ = 50% bass / 50% mid / 100% treble

Intro :
 |: 8x   :|
G|--------|--------|--------|--------|--------|--------|--------|--------|--------|
D|--------|5-5-5-5-|-H------|4-4-4-4-|-H------|5-5-5-5-|-H------|4-4-4-4-|-H------|
A|--------|--------|245-5-5-|--------|024-4-4-|--------|245-5-5-|--------|024-----|
E|--------|--------|--------|--------|--------|--------|--------|--------|--------|

Couplet :
 |: 7x                              :|
G|--------|--------|--------|--------|
D|--------|-------H|--------|--------|
A|2---2--0|----0-56|7-7-+-5-|--5-4-4-|
E|--------|--------|--------|--------|

Refrain :
 |: 2x                                                                  :|
G|--------|--------|--------|--------|--------|--------|--------|--------|
D|5-5-5-5-|-H------|4-4-4-4-|-H------|5-5-5-5-|-H------|4-4-4-4-|-H------|
A|--------|245-5-5-|--------|024-4-4-|--------|245-5-5-|--------|024--4--|
E|--------|--------|--------|--------|--------|--------|--------|--------|

Couplet 2 :
 |: 8x                              :|
G|--------|--------|--------|--------|
D|--------|-------H|--------|--------|
A|2---2--0|----0-56|7-7-+-5-|--5-4-4-|
E|--------|--------|--------|--------|

Refrain 2 :
G|--------|--------|--------|--------|--------|--------|--------|--------|
D|5-5-5-5-|-H------|4-4-4-4-|-H------|5-5-5-5-|-H------|4-4-4-4-|-H------|
A|--------|245-5-5-|--------|024-4-4-|--------|245-5-5-|--------|024--4--|
E|--------|--------|--------|--------|--------|--------|--------|--------|

G|--------|--------|--------|--------|--------|--------|--------|--------|
D|5-5-5-5-|-H------|4-4-4-4-|-H------|5-5-5-5-|-H------|--------|--------|
A|--------|245-5-5-|--------|024-4-4-|--------|245-5-2-|4-4-4-4-|5-5-7-7-|
E|--------|--------|--------|--------|--------|--------|--------|--------|

Solo :
G|--------|--------|--------|--------|--------|--------|--------|--------|
D|--------|-------H|--------|--------|--------|-------H|--------|--------|
A|2-2-2-21|0-0-0-56|7-7-7-5-|5-5-4-4-|2-2-2-21|0-0-0-56|7-7-7-5-|5-5-5-5-|
E|--------|--------|--------|--------|--------|--------|--------|--------|

 |: 2x                              :|: 2x                              :|
G|--------|--------|--------|--------|--------|--------|--------|--------|
D|5-5---5-|5-5---5-|4-4---4-|4-4---4-|5-5---5-|-H------|4-4---4-|-H------|
A|----5---|----5---|----4---|----4---|----5---|245-----|----4---|024-----|
E|--------|--------|--------|--------|--------|--------|--------|--------|

 |: 2x                              :|        |: 10x  :|
G|--------|--------|--------|--------|--------|--------|--------|--------|--------|
D|5-5-5-5-|-H------|4-4-4-4-|-H------|--------|--------|--------|4::-----|--------|
A|--------|245-----|--------|024-----|2-------|--------|-------2|:::-----|--------|
E|--------|--------|--------|--------|--------|--------|--------|--------|--------|

=========================================================================================================================
Légende : + = étouffer la corde (stopper le son)
          ::: = ne pas étouffer cette corde, ne pas couper le son
          H = Hammer On (de la note qui se trouve juste sous le H)
          |: Nx :| = répéter N fois le passage entre |: et :|
          Il y a si peu de petites variations que cela ne valait pas la peine de remplir des feuilles de tablatures
          juste pour ces dernières. Ce morceau n'est donc pas scrupuleusement retranscrit, contrairement à mon habitude.
=========================================================================================================================

Visitez http://www.ilovetabs.com pour d'autres tablatures "+R" pour guitare basse.

    
    

1 Commentaire

1 2 3 4 5
0 notes
#1
04/03/2018 16:26:25

Bonjour, il est vraiment dommage de ne pas avoir l'écriture rythmique.

noire, croche silence soupir etc ??? 

 

 

0
0

En Live

Lebollos59 vient tout juste de rejoindre la communauté Slappyto. Bienvenue ! il y a 5 heures
GregRock vient tout juste de rejoindre la communauté Slappyto. Bienvenue ! il y a 8 heures
Chris927 vient tout juste de rejoindre la communauté Slappyto. Bienvenue ! il y a 4 jours
Greeshma vient tout juste de rejoindre la communauté Slappyto. Bienvenue ! il y a 5 jours
Ludo ZEFISH vient tout juste de rejoindre la communauté Slappyto. Bienvenue ! il y a 5 jours
Nicobass1793 vient tout juste de rejoindre la communauté Slappyto. Bienvenue ! il y a 6 jours
Indonesiae vient tout juste de rejoindre la communauté Slappyto. Bienvenue ! il y a 1 semaine
Grandbill a commenté la tablature de Coup_de_pelle il y a 1 semaine
Grandbill a voté pour la tablature de Coup_de_pelle il y a 1 semaine