ConnexionConnexionInscription
B E A D G
163 connectés Aller à Sweepyto Guitare

Beatles - Mean Mr Mustard [ Artiste ]

Publié par le
27/12/2012
2929 vues
Débutant 1
http://www.youtube.com/watch?v=_FpMBu4Duy4
    
        

The Beatles
Mean Mr Mustard                                                     
Abbey road

(pdf et gp5 sur tababass http://junk1000.free.free.fr/menutabs.html)


G||------------------------|------------------------|------------------------|---------------------------|
D||------------------------|------------------------|------------------------|------------x-----------4--|
A||--7--7------------------|--7--7------------------|--7--7------------------|--7--7--------7--6--4-6----|
E||-------------7--7-------|-------------7--7-------|-------------7--7-------|---------------------------|


------------------------|--------------------------|------------------------|---------------------------|
-------------4--4-------|-----------4--------------|-------------7--7-------|-----------7\--------------|
--2--2------------------|--2--2--------2--3--4--5--|--5--5------------------|--5--5---------5--4--3--2--|
------------------------|--------------------------|------------------------|---------------------------|


 
----------------------------|--------------------------|------------------------|------------------------|
----------------------------|--------------------------|------------------------|------------------------|
--(2)--(2)-------9--9-------|-----------9--------6-----|--7--7------------------|-------------------6----|
----------------------------|--7--7--------7--9-----7--|-------------8--8-------|--7--7-----7----9-------|



------------------------|--------------------------|
------------------------|--------------------------|
--7--7------------------|-----------------4--6-----|
-------------8--8-------|--7--7-----5--7--------7--|
    
    

0 Commentaires : réagissez !

1 2 3 4 5
0 notes
Aucun commentaire !

En Live

Escaliyo et grobass ont commenté le topic [HELP CONFIG AMPLI !] de JR BASS il y a 1 heure
Escaliyo a voté pour le message de grobass il y a 1 heure
Escaliyo a commenté le topic [Basse pour débuter ] de Patmustang il y a 8 heures
Ray a voté pour le message de grobass il y a 19 heures
Jerem65 et grobass ont commenté le topic [Et vous, vous écoutez quoi maintenant ?] de nono il y a 19 heures