ConnexionConnexionInscription
B E A D G
149 connectés Aller à Sweepyto Guitare

Beatles - Golden Slumbers [ Artiste ]

Publié par le
27/12/2012
4289 vues
Débutant 1
http://www.youtube.com/watch?v=Gwt3yXQEZdU
    
        

The Beatles
Golden Slumbers                                                   
Abbey road

(http://junk1000.free.free.fr/menutabs.html)

Couplet 1

       Am              Dm                        G                                      
G||------------|----|----------|----|---------|-------------|
D||--6g7-------|----|----------|----|--4g5----|-------------|
A||------------|----|--4g5-----|----|---------|--3--------7-|
E||------------|----|----------|----|---------|-------------|


           Dm                                                                                                              
--------------------|---------------------|-----------------|----|
--7-----------------|-----------5----7----|--9----5---------|----|
-----------5--------|---------------------|------------3----|----|
--------------------|---------------------|-----------------|----|



Refrain

   C                                                    
|--------------------|----------------------|-----------------------|----------------------|
|--------------------|--3----3--------------|-----------------------|----------------------|
|--3------3-------3--|----------------------|--3-----3--------------|--3----3-----------3--|
|-------------3-5----|---------------0-3-5--|----------------0-3-5--|---------------3-5----|


------------------------|----------------------|-------------------|
--3------3--------------|----------------------|-------------------|
------------------------|--3----5----2----2----|------------5------|
-----------------0-3-5--|----------------------|--5----5-----------|


                                     C                   
-----------|----------------------|-------------------|
-----------|--5----7----9----5----|-------------------|
-----------|----------------------|--3----------------|
-----------|----------------------|-------------------|


Couplet 2

       Am                          Dm                                          G                     
G|--------------|--------------|---------------7--|-------------------|-----------12------|
D|--6g7---------|--------------|------------------|---------------5---|--4g5----------12--|
A|--------------|--------------|--4g5-------------|--5--------5-7-----|-------------------|
E|--------------|--5-----------|------------------|-------------------|-------------------|


                                            Dm                                                                 
------------------|----------------------|-------7-------------|-----------------|-------7--------|----|
------------5\----|-----------------5----|--7------------------|-------5----7----|--9-------------|----|
------------------|--3----5----7---------|------------5--------|-----------------|------------3---|----|
--3---------------|----------------------|---------------------|-----------------|----------------|----|

enchaine sur carry that weight
    
    

0 Commentaires : réagissez !

1 2 3 4 5
0 notes
Aucun commentaire !

En Live

MamieTromblon et gozo ont commenté le topic [Ibanez K5 Fieldy de 2013 400 EUROS] de MamieTromblon il y a 1 jour
Birdie num num vient tout juste de rejoindre la communauté Slappyto. Bienvenue ! il y a 1 jour
Bassman59 et Jeff K-Bass ont commenté le topic [Quels micros avec une électronique active] de Jeff K-Bass il y a 1 jour
Robeforjudaw vient tout juste de rejoindre la communauté Slappyto. Bienvenue ! il y a 3 jours
BlueSubaru et 3dd-titix ont commenté le topic [musicman sterling USA ] de 3dd-titix il y a 4 jours
Ray a voté pour le message de yaumegui il y a 5 jours
Anne33 vient tout juste de rejoindre la communauté Slappyto. Bienvenue ! il y a 5 jours