ConnexionConnexionInscription
B E A D G
177 connectés Aller à Sweepyto Guitare

Sade - Smooth Operator [ Artiste ]

Publié par le
10/01/2013
6285 vues
Débutant 4
http://www.youtube.com/watch?v=4TYv2PhG89A
    
        

**************************
* Sade : Smooth Operator *
**************************

mesure = 4/4, tempo = 120, subdivision (-) = croche
suggestion de réglages :
    micro : 100% chevalet
    EQ = 50% bass / 50% mid / 50% treble

Intro :
 |: 3x   :|   P P                                     
G|--------|--54----|--------|--------|--------|--------|--------|--------|--------|--------|
D|--------|----54--|--------|--------|--------|--------|--------|--------|--------|--------|
A|--------|------54|5--54--3|---32---|5--54--3|---323-4|5--54--3|---32---|5--54--3|---32-3-|
E|--------|--------|-----5--|-5----3-|-----5--|-5------|-----5--|-5----3-|-----5--|-5------|

Couplet :
 |: 3x            :|                 
G|--------|--------|--------|--------|
D|--------|--------|--------|--------|
A|5--5----|------3-|5--5----|-----3-7|
E|----5--5|3--35---|----5--5|3--35---|

Couplet

Pont :
      /-3\     /-3\                       /-3\     /-3\                       /-3\     /-3\
G|--------|--------|--------|--------|--------|--------|--------|--------|--------|--------|--------|--------|
D|----5---|----7---|--------|--------|----5---|----7---|--------|--------|----5---|----7---|--------|--------|
A|---5-5--|---7-7--|5--54--4|3--32---|---5-5--|---7-7--|5-------|5---/8-5|---5-5--|---7-7--|--5---35|+-------|
E|3------3|5------5|--------|-----1-2|3------3|5------5|-------5|--------|3------3|5------5|+----5--|--------|

Refrain :
G|--------|--------|--------|--------|--------|--------|--------|--------|
D|--------|--------|--------|--------|--------|--------|--------|--------|
A|5--5----|------3-|5--5----|------3-|5--5----|------3-|5--5----|------3-|
E|----5--5|3--35--5|----5--5|3--35---|----5--5|3--35--5|----5--5|3--355--|

Pont 2 :
G|--------|--------|--------|--------|--------|--------|--------|--------|
D|--------|--------|--------|------7-|--------|--------|--------|--------|
A|5-------|------3-|5-------|--------|5-------|------3-|5--5-5--|--------|
E|---35-53|-03655-5|---35-53|-03655-5|---35-53|-03655-5|----5-53|---5----|

G|--------|--------|--------|--------|--------|--------|--------|--------|
D|--------|--------|--------|--------|--------|--------|--------|--------|
A|5-------|--------|--------|--------|5-------|5-------|--------|--------|
E|--------|--------|3-------|5-------|--------|--------|3-------|5-------|

Solo :
                   |: 3x            :|
G|--------|--------|--------|--------|
D|--7-----|--------|--7-----|--------|
A|5-----7-|--5---7-|5-----7-|--5---7-|
E|---58--3|3--35--5|---58--3|3--355-5|

Couplet
Pont
Refrain

Pont 3 :
G|--------|--------|--------|--------|--------|--------|--------|--------|
D|--------|--------|--------|------7-|--------|--------|--------|------7-|
A|5-------|------3-|5-------|--------|5-------|------3-|5--5-5--|--------|
E|---35-53|-03655-5|---35-53|-03655-5|---35-53|-03655-5|----5-53|-03655-5|

Refrain 2 :
 |: 7x            :|        |:2x >           :|
G|--------|--------|--------|--------|--------|
D|--7-----|--------|--------|--7-----|--------|
A|5-----7-|--5---7-|----3-34|5-----7-|--5---7-|
E|---555-3|-3-355-5|3-------|---555-3|-3-355-5|

=========================================================================================================================
Légende : + = étouffer la corde (stopper le son)
          /-3\ = triolet
          P = Pull Off (de la note qui se trouve juste sous le P)
          |: Nx :| = répéter N fois le passage entre |: et :|
          > = en diminuant le volume
=========================================================================================================================

Visitez http://www.ilovetabs.com pour d'autres tablatures "+R" pour guitare basse.

    
    

1 Commentaire

1 2 3 4 5
2 notes
Notes pour Smooth Operator Basse Tab - (Sade) | Slappyto : 4/5 sur 2 notes
#1
30/01/2018 14:24:02

ah super ! merci pour se partage j'adore   ça y est je commence a mieux comprendre les tablatures !  c'est cool pour une débutante

merci 

cordialement 

nana26

0
0

En Live

ROMABASS a commenté le wall de voschielle il y a 9 heures
ROMABASS a commenté le topic [VDS GALLIEN KRUEGER RBX 210 190€] de voschielle il y a 18 heures
Tekabass vient tout juste de rejoindre la communauté Slappyto. Bienvenue ! il y a 1 jour
Toto Bass a voté pour le cours de mg` il y a 1 jour
Toto Bass a voté pour le cours de mg` il y a 1 jour
Toto Bass vient tout juste de rejoindre la communauté Slappyto. Bienvenue ! il y a 1 jour
L#G et madamaris ont commenté le topic [ibanez SRX 360 (180 euros)] de madamaris il y a 4 jours
Manikkmanikk62 et BouBou37 ont commenté le topic [Club des Aria pro II =D] de darkkimhari il y a 4 jours
Manikkmanikk62 vient tout juste de rejoindre la communauté Slappyto. Bienvenue ! il y a 4 jours