ConnexionConnexionInscription
B E A D G
122 connectés Aller à Sweepyto Guitare

M et Vanessa Paradis - La Seine [ Artiste ]

Publié par le
11/01/2013
19622 vues
Moyen 2
http://www.youtube.com/watch?v=9Z-NbQvhzKM
    
        

**********************************
* M & Vanessa Paradis : La Seine *
**********************************

mesure = 2/4, tempo = 113, subdivision (-) = double-croche
suggestion de réglages :
    micro : 100% manche
    EQ = 100% bass / 50% mid / 50% treble

Intro :
 |: 6x   :|
G|--------|--------|--------|
D|--------|--------|--------|
A|--------|-------0|5-0-2-4-|
E|--------|--------|--------|

Couplet :
G|--------|--------|--------|--------|--------|--------|--------|--------|
D|--------|--------|--------|--------|--------|7-------|--------|--------|
A|5-------|--------|--------|--------|8-------|--------|5-------|--------|
E|--------|--------|--------|------6-|--------|--------|--------|--------|

 |: 3x                                                                  :|
G|--------|--------|--------|--------|--------|--------|--------|--------|
D|--------|--------|--------|--------|--------|7-------|--------|--------|
A|--------|--------|--------|--------|8-------|--------|5-------|--------|
E|--------|--------|--------|------6-|--------|--------|--------|--------|	 

Refrain :
G|--------|--------|--------|--------|--------|--------|--------|--------|
D|--------|----3-2-|--------|----2-3-|--------|--------|--------|--------|
A|5---0---|5-------|1-------|1-------|--------|0---+---|5---0--0|2-0-2-4-|
E|--------|--------|----1---|--------|1---1---|--------|--------|--------|

G|--------|--------|--------|--------|--------|--------|--------|--------|--------|--------|
D|--------|----3-2-|--------|----2-3-|--------|--------|--------|--------|--------|--------|
A|5---0---|5-------|1-------|1-------|--------|0---+---|--------|--------|--------|------4-|
E|--------|--------|----1---|--------|1---1---|--------|--------|--------|--------|6-5-6---|

Couplet 2 :
G|--------|--------|--------|--------|--------|--------|--------|--------|
D|--------|--------|--------|--------|--------|--------|--------|--------|
A|5---0---|5---5-3-|1-------|1---1-3-|--------|0---0---|5---0---|5-0-2-4-|
E|--------|--------|----1---|--------|1---1---|--------|--------|--------|

G|--------|--------|--------|--------|--------|--------|--------|--------|
D|--------|--------|----3---|--------|--------|--------|--------|--------|
A|5---0---|5---5-3-|1-------|1---1-3-|--------|0---0---|5-------|5-+-----|
E|--------|--------|--------|--------|1---1---|--------|--------|--------|

Refrain

Couplet 3 :
G|--------|--------|--------|--------|----7---|----9---|7-------|7-------|
D|--------|--------|5---8---|7---A---|8-------|A-------|----7---|--7-----|
A|5---0---|5-7-8---|--------|--------|--------|--------|--------|----8-7-|
E|--------|--------|--------|--------|--------|--------|--------|--------|

G|--------|--------|--------|--------|--------|--------|--------|--------|--------|--------|
D|--------|----7---|5-------|7-------|8-------|8-------|8---7---|5-------|--------|--------|
A|5---0---|5-------|----5---|----7---|----8---|----8---|--------|----8---|--------|--------|
E|--------|--------|--------|--------|--------|--------|--------|--------|6-------|------+-|

Finale :
 |: 15x  :|
G|--------|--------|--------|--------|--------|--------|--------|--------|--------|--------|
D|--------|--------|--------|----3-2-|--------|----0-2-|3-------|--------|--------|--------|
A|--------|0-0-2-4-|5---0---|5-------|1-------|1-------|----3---|0---7---|5---0---|0-0-2-4-|
E|--------|--------|--------|--------|----1---|--------|--------|--------|--------|--------|

G|--------|--------|--------|--------|--------|--------|--------|
D|--------|----3-2-|--------|----2-3-|--------|--------|--------|
A|5---0---|5-------|1-------|1-------|--------|0---+---|--------|
E|--------|--------|----1---|--------|1---1---|--------|--------|

=========================================================================================================================
Légende : A=10,B=11,C=12,...
          + = étouffer la corde (stopper le son)
          |: Nx :| = répéter N fois le passage entre |: et :|
=========================================================================================================================

Visitez http://www.ilovetabs.com pour d'autres tablatures "+R" pour guitare basse.

    
    

0 Commentaires : réagissez !

1 2 3 4 5
1 note
Notes pour La Seine Basse Tab - (M Et Vanessa Paradis) | Slappyto : 5/5 sur 1 note
Aucun commentaire !

En Live

BouBou37 a commenté le topic [Club des Aria pro II =D] de darkkimhari il y a 5 jours
Abgezehr vient tout juste de rejoindre la communauté Slappyto. Bienvenue ! il y a 6 jours
Roberti1 vient tout juste de rejoindre la communauté Slappyto. Bienvenue ! il y a 1 semaine
Clemtvnn vient tout juste de rejoindre la communauté Slappyto. Bienvenue ! il y a 1 semaine
Dacris vient tout juste de rejoindre la communauté Slappyto. Bienvenue ! il y a 2 semaines
Silvianajune vient tout juste de rejoindre la communauté Slappyto. Bienvenue ! il y a 2 semaines
Sumoparis vient tout juste de rejoindre la communauté Slappyto. Bienvenue ! il y a 2 semaines
Roomicien vient tout juste de rejoindre la communauté Slappyto. Bienvenue ! il y a 2 semaines
IMilanek vient tout juste de rejoindre la communauté Slappyto. Bienvenue ! il y a 2 semaines
Sylvaiw vient tout juste de rejoindre la communauté Slappyto. Bienvenue ! il y a 3 semaines