ConnexionConnexionInscription
B E A D G
149 connectés Aller à Sweepyto Guitare

King Floyd - I feel like dynamite [ Artiste ]

Publié par le
11/01/2013
3896 vues
Débutant 3
http://www.youtube.com/watch?v=N0ctmfyG4gk
    
        

I feel like dynamite                                                        
King Floyd

pdf et guitar pro5 sur Tababass
http://junk1000.free.free.fr/menutabs.html



Intro
     C#m                                                                           
G||-------------------|-------------------|-------------------|-------------------|
D||-------------------|--2----------------|--4----------------|-------------------|
A||--4----------------|-------------------|-------------------|--4----------------|
E||-------------------|-------------------|-------------------|-------------------|


|------------------|-------------------|-------------------|----------------------|
|------------------|--2----------------|--4----------------|------2---4-----------|
|-4----------------|-------------------|-------------------|--4-------------------|
|------------------|-------------------|-------------------|----------------------|


Couplet
G||---------------------|---------------------|
D||---------------------|-------6-------------| 4X
A||--4-----2-------2--4-|---------7---4-------|
E||---------------------|---------------------|


|---------------------|---------------------|---------------------|---------------------|
|--8-------------6----|--8-------------6--7-|--8-------------6----|--8------------------|
|-------8------8------|-------8------8------|-------8------8------|-------8-------------|
|---------------------|---------------------|---------------------|------------6--7--8--|


Refrain
G||-------------------------|------------------------|		|-----------------------|
D||-------------------------|------------------------| 5X	|-----------------------|
A||----------------------8--|--9---------9-----------|		|-----------------------|
E||--9-------7---------7----|--------------6---7--8--|		|--4--6--7----4-6---7---|



Bridge (2'15")

G||---------------------------|---------------------------|----------------------------|
D||--------------8---------8--|--------------8------8-----|----------------------------|
A||--------8---8------6s-8----|--------8---8------8-----8-|--9---9-------9-9--9----6-8-|
E||--6---6--------------------|--6---6--------------------|--------9---9--------9------|


|------------------------|----------------------|----------------------|---------------------|
|------------------------|----------------------|----------------------|---------------------|
|-9---------9----9-8--7--|--6-------6-------6-8-|--9--------9----9-----|---------------------|
|------9------9----------|------6--------6------|------9------9----9---|--4--6--7----4-6---7-|
    
    

0 Commentaires : réagissez !

1 2 3 4 5
1 note
Notes pour I Feel Like Dynamite Basse Tab - (King Floyd) | Slappyto : 5/5 sur 1 note
Aucun commentaire !

En Live

Yvesson a commenté le topic [Amateurs de photographie, bon-jour/soir !] de cha0s-the0ry il y a 7 minutes
Yvesson a commenté le topic [Le Topic du Freepost 7] de Vikie il y a 15 minutes
Yvesson, sam et YannGGP ont commenté le topic [La mort de Slappyto?] de kurt il y a 15 minutes
Glimmerkajal vient tout juste de rejoindre la communauté Slappyto. Bienvenue ! il y a 2 jours
Wario a commenté le topic [videothèque des sons] de mr gone il y a 1 semaine
Lebollos59 vient tout juste de rejoindre la communauté Slappyto. Bienvenue ! il y a 1 semaine
GregRock vient tout juste de rejoindre la communauté Slappyto. Bienvenue ! il y a 1 semaine
Chris927 vient tout juste de rejoindre la communauté Slappyto. Bienvenue ! il y a 2 semaines
Greeshma vient tout juste de rejoindre la communauté Slappyto. Bienvenue ! il y a 2 semaines