ConnexionConnexionInscription
B E A D G
143 connectés Aller à Sweepyto Guitare

C2C - Bernhoft - Shout (C2C Remix) [ Artiste ]

Publié par le
16/01/2013
2968 vues
Avancé 1
http://www.youtube.com/watch?v=HWE23GDIrwo
    
        

Première tablature que je fais, donc soyez indulgent :) mais je pense que dans l'ensemble c'est ça
En soit rien d'impossible juste un groove de fou :), toutefois, attention le rythme est assez syncopé
donc je vais essayer de faire ça de manière clair (voir légende)

Je n'ai relevé que les parties principales vu que l'intro et le pont sont clairement basés dessus
Egalement comme c'est une partoch pour synthé-basse (je pense hein), je n'ai pas relevé de notes mortes, 
hammer/pull off, donc c'est à vous de voir si vous voulez en jouer et surtout où vous voulez les jouer

Au niveau du son pour la babasse je pense qu'il faut beaucoup d'attaque donc le médiator s'impose 
ou pour les plus ambitieux, essayez de le jouer en slap (perso j'y arrive pas) et si vous avez 
le chance d'avoir des effets voir multi-effets, essayez de trouver un son un peu synthé ça devrait le faire

Tempo: 110 / Tonalité: Fm / Rythme: binaire


REFRAIN:

           Fm
G:/ (----)(----)(----)(----)/ (----)(----)(----)(----)/
D:/ (----)(----)(----)(---3)/ (----)(----)(---3)(-31-)/
A:/ (----)(----)(----)(----)/ (3---)(----)(--3-)(----)/
E:/ (-1--)(1--1)(----)(----)/ (-1--)(1---)(-1--)(----)/

           C# 
G:/ (----)(----)(----)(----)/ (----)(----)(----)(----)/
D:/ (----)(----)(----)(----)/ (----)(----)(----)(----)/
A:/ (-4--)(4--4)(----)(----)/ (-4--)(4---)(---4)(--4-)/
E:/ (----)(----)(----)(---4)/ (6---)(----)(----)(-4-4)/

           A#m
G:/ (----)(----)(----)(----)/ (----)(----)(----)(----)/
D:/ (----)(----)(----)(----)/ (----)(----)(----)(----)/
A:/ (-1--)(1--1)(----)(----)/ (----)(1---)(-1--)(-3--)/
E:/ (----)(----)(----)(---1)/ (41--)(----)(---1)(--4-)/

           Fm
G:/ (----)(----)(----)(----)/ (----)(----)(----)(----)/
D:/ (----)(----)(----)(---3)/ (----)(----)(----)(----)/
A:/ (----)(----)(----)(----)/ (3---)(----)(----)(1-3-)/
E:/ (-1--)(1--1)(----)(----)/ (-1--)(1---)(-141)(-4-1)/
                                           [deux derniers temps:]
                                           [à jouer la première fois quand il n'y a pas de voix, après]                
                                           [on laisse juste sonner la troisième note]
COUPLET:
        
         Fm
G:/ (----)(----)(----)(----)/ (----)(----)(----)(----)/
D:/ (----)(----)(----)(---3)/ (----)(----)(----)(----)/
A:/ (----)(----)(----)(----)/ (3---)(----)(----)(----)/
E:/ (-1--)(1--1)(----)(----)/ (-1--)(1---)(----)(-14-)/

        A#m
G:/ (----)(----)(----)(----)/ (----)(----)(----)(----)/
D:/ (----)(----)(----)(----)/ (----)(----)(----)(----)/
A:/ (-1--)(1--1)(----)(----)/ (----)(1---)(-1--)(----)/
E:/ (----)(----)(----)(---1)/ (41--)(----)(----)(----)/

         Fm
G:/ (----)(----)(----)(----)/ (----)(----)(----)(----)/
D:/ (----)(----)(----)(---3)/ (----)(----)(----)(----)/
A:/ (----)(----)(----)(----)/ (3---)(----)(----)(----)/
E:/ (-1--)(1--1)(----)(----)/ (-1--)(1---)(----)(-14-)/

        A#m
G:/ (----)(----)(----)(----)/ (----)(----)(------)(------)/
D:/ (----)(----)(----)(----)/ (----)(----)(------)(-131--)/
A:/ (-1--)(1--1)(----)(----)/ (----)(1---)(-----1)(3---3-)/
E:/ (----)(----)(----)(---1)/ (41--)(----)(---14-)(-----4)/
                                           666666  666666
                                           [partie non jouée par la basse mais moi je trouve rigolo]
                                           [de le jouer! un conseil, utilisez hammer et pull off,]
                                           [ça va assez vite pour le coup]

Légende:
- = une double croche
(----) ou avec les chiffres = un temps
/ = mesure
6 (en bas de la tablature) = sextolet 

Fm, C#, A#m (noté en haut de la tablature, il y a un changement d'accord toutes les deux mesures)
                                           =   accords du morceau                    

    
    

0 Commentaires : réagissez !

1 2 3 4 5
0 notes
Aucun commentaire !

En Live

RomBass91 a commenté le topic [Vend Carvin USA 6 Cordes] de Rif-Raf il y a 1 jour
Lowje a commenté le topic [besoin de renseignements zoom b3] de domds11 il y a 2 jours
Didoug vient tout juste de rejoindre la communauté Slappyto. Bienvenue ! il y a 2 jours
Hugo0901 vient tout juste de rejoindre la communauté Slappyto. Bienvenue ! il y a 2 jours
Rif-Raf vient tout juste de rejoindre la communauté Slappyto. Bienvenue ! il y a 2 jours
Ichran vient tout juste de rejoindre la communauté Slappyto. Bienvenue ! il y a 2 jours
LouisBasse vient tout juste de rejoindre la communauté Slappyto. Bienvenue ! il y a 4 jours
Kazhamania vient tout juste de rejoindre la communauté Slappyto. Bienvenue ! il y a 5 jours