ConnexionConnexionInscription
B E A D G
126 connectés Aller à Sweepyto Guitare

The Ting Things - Shut Up and Let Me Go [ Artiste ]

Publié par le
16/01/2013
3522 vues
Débutant 1
http://www.youtube.com/watch?v=H-8iFO6Ww-o
    
        



         Do stuff on left side of line x2 then continue
G|-------------------------------------/-----------------------------------|
D|-------------------------------------/-----------------------------------|
A|-------------------------------------/-----------------------------------|
E|-0-0-0-003-0-0-0-0038753-30-0-0-0-003/-0-0-0-003-0-0-0-003-0-0-0-03-0-0-0|
                                     
G|-----------------------------------------------------------------------|
D|---------------------6-3-6-336-6-3-6-336-------------------------------|
A|-----------------------------------------6-3-6-3-6-6h8-----------------|
E|0038753-30-0-0-0-003-----------------------------------0-0-0-003-0-0-0-|

G|-----------------------------------------------------------------------|
D|-----------------------------------------------------------------------|
A|-----------------------------------------------------------------------|
E|0038753-30-break-0-0-0-003-0-0-0-0038753-30-0-0-0-003-0-0-0-003-0-0-0-0|

G|-----------------------------------------------------------------------|
D|-----------------------------------------------------------------------|
A|-----------------------------------------------------------------------|
E|038753-30-0-0-0-003-0-0-0-003-0-0-0-003-0-0-0-003-0-0-0-0038753-30-0-0-|

G|-----------------------------------------------------------------------|
D|-----6-3-6-336-6-3-6-336-----------------------------------------------|
A|-------------------------6-3-6-3-6-6h8---------------------------------|
E|-003-----------------------------------0-0-003-0-0-0-0038753-30-break-0|

G|-----------------------------------------------------------------------|
D|-----------------------------------------------------------------------|
A|-----------------------------------------------------------------------|
E|-0-0-0-003-0-0-0-0038753-30-0-0-0-003-0-0-0-003-0-0-0-0038753-30-break-|

G|-----------------------------------------------------------------------|
D|-----------------------------------------------------------------------|
A|-----------------------------------------------------------------------|
E|0-0-0-003-0-0-0-0038753-30-0-0-0-003-0-0-0-003-0-0-0-0038753-30-0-0-0-0|

G|-----------------------------------------------------------------------|
D|-----------------------------------------------------------------------|
A|-----------------------------------------------------------------------|
E|03-0-0-0-003-0-0-0-0038753-30-0-0-0-003-0-0-0-003-0-0-0-0038753-30-0-0|

G|-----------------------------------------------------------------------|
D|-----------------------------------------------------------------------|
A|-----------------------------------------------------------------------|
E|0-003-0-0-0-003-0-0-0-00387530-30-0---0--------------------------------|
    
    

0 Commentaires : réagissez !

1 2 3 4 5
0 notes
Aucun commentaire !

En Live

RomBass91 a commenté le topic [Vend Carvin USA 6 Cordes] de Rif-Raf il y a 1 jour
Lowje a commenté le topic [besoin de renseignements zoom b3] de domds11 il y a 2 jours
Didoug vient tout juste de rejoindre la communauté Slappyto. Bienvenue ! il y a 2 jours
Hugo0901 vient tout juste de rejoindre la communauté Slappyto. Bienvenue ! il y a 2 jours
Rif-Raf vient tout juste de rejoindre la communauté Slappyto. Bienvenue ! il y a 2 jours
Ichran vient tout juste de rejoindre la communauté Slappyto. Bienvenue ! il y a 2 jours
LouisBasse vient tout juste de rejoindre la communauté Slappyto. Bienvenue ! il y a 5 jours
Kazhamania vient tout juste de rejoindre la communauté Slappyto. Bienvenue ! il y a 5 jours