ConnexionConnexionInscription
B E A D G
125 connectés Aller à Sweepyto Guitare

U2 - Until the end of the world [ Artiste ]

Publié par le
02/02/2013
2057 vues
Moyen 2
    
        

Intro:
G|----------------------------------|
D|----------------------------------|
E|-7-7-5-7-5-----5--7-7-5-7-5-----5-| X 6
A|-----------5-7--------------5-7---|


Verse:
G|--------------------------------------------------------------------|
D|--------------------------------------------------------------------|
E|-2-2-0-2-0-----0--5-5-3-5-3-----3--7-7-5-7-5-----5--7-7-5-7-5-----5-| X 2
A|-----------0-2--------------3-5--------------5-7--------------5-7---|

G|---------------------------------|
A|-----------------------------5-4-|
D|-5-5-3-5-3-----5-3---------5-----|
A|-----------5-5-----5-0-0-3-------|

G|-------------------------------------------------------|
D|-------------------------------------------------------|
E|-5-5-3-5-3------------7-7-5-7-5-----5--7-7-5-7-5-----5-|
A|-----------5-5-3-5-3------------5-7--------------5-7---|

G|----------------------------------|
D|----------------------------------|
E|-7-7-5-7-5-----5--7-7-5-7-5-----5-| 
A|-----------5-7--------------5-7---|
				
Repeat verse

Solo:
G|-----------------------------------------|
A|-----------------------------------------|
D|---------3-5-5-3-5-3---------------------| X 3
E|-3-3-1-3-------------5-5-0-2-3-5-5-0-2-3-|

G|-------------------------------------------------------|
D|-------------------------------------------------------|
E|-2-2-----0-5-5-----3--7-7-5-7-5-----5--7-7-5-7-5-----5-|
A|-----0-2-------3-5--------------5-7--------------5-7---|

G|----------------------------------|
D|----------------------------------|
E|-7-7-5-7-5-----5--7-7-5-7-5-----5-| 
A|-----------5-7--------------5-7---|

G|--------------------------------------------------------------------|
D|--------------------------------------------------------------------|
E|-2-2-0-2-0-----0--5-5-3-5-3-----3--7-7-5-7-5-----5--7-7-5-7-5-----5-| X 2
A|-----------0-2--------------3-5--------------5-7--------------5-7---|

Repeat verse

Outro :
G|----------------------------------|
D|----------------------------9-7-5-|
E|-7-7-5-7-5-----5--7-7-5-7-5-------| X 10
A|-----------5-7--------------------|
    
    

0 Commentaires : réagissez !

1 2 3 4 5
0 notes
Aucun commentaire !

En Live

Saikodoll vient tout juste de rejoindre la communauté Slappyto. Bienvenue ! il y a 1 heure
Tommo59 a commenté le topic [Peavey Cirrus 4c USA 1990’s 900€] de Tommo59 il y a 15 heures
Bertrand44 vient tout juste de rejoindre la communauté Slappyto. Bienvenue ! il y a 16 heures
OLIVIER59500 vient tout juste de rejoindre la communauté Slappyto. Bienvenue ! il y a 1 jour
Jazzbassfoufou vient tout juste de rejoindre la communauté Slappyto. Bienvenue ! il y a 1 jour
MrSpit a commenté le topic [Sandberg Fretless] de MrSpit il y a 2 jours