ConnexionConnexionInscription
B E A D G
145 connectés Aller à Sweepyto Guitare

Claude Nougaro - Armstrong [ Artiste ]

Publié par le
06/05/2013
15268 vues
Débutant 1
http://www.deezer.com/track/1101590
    
        

BASS TAB
Armstrong - Claud Nougaro
Tonalité d'origine : E
Tonalité de la tab : F#
Pour jouer dans la tonalité d'origine, jouez donc deux demi-tons en dessous. Il s'agit de ma première tab,
pas parfaite évidemment. C'est morceau de jazz, libre à vous d'improviser dessus. La grille d'accord est
trouvable sur internet.

Intro
G|-------------------------
D|--------0-2-2-0-0--------
A|--0---0-----------3-3-2-2
E|0------------------------

Chorus
G|-----------------------------------------------------------
D|------------0---0-2-2-----------------------0---0-2-2------
A|0-0-2-2-3-3---3-----------0-2-2-0-0-2-2-3-3---3-----------0
E|----------------------4-4-----------------------------4-4--

Bridge
G|--------2-0------------
D|----0-0-----3-2-0------
A|0-0---------------3-2-0
E|-----------------------

Verse
G|2-2------------------------------------------
D|----2-2-0-0-0-0-2-2-------2-2-0-----2-2-0----
A|------------------------0-------3-2-------3-2
E|--------------------4-4----------------------

Chorus

Bridge

Verse

Chorus

Bridge 2
G|2-2-7-7-9-9-7-7-5-5-4-4
D|-----------------------
A|-----------------------
E|-----------------------

Verse

Chorus

End
G|------------4-4-5-5-7----------
D|----0-0-7-7-----------------0--
A|0-0-------------------0---0---3
E|------------------------0------

Ecrit par Cesar B.
    
    

0 Commentaires : réagissez !

1 2 3 4 5
0 notes
Aucun commentaire !

En Live

Glimmerkajal vient tout juste de rejoindre la communauté Slappyto. Bienvenue ! il y a 2 jours
Wario a commenté le topic [videothèque des sons] de mr gone il y a 1 semaine
Lebollos59 vient tout juste de rejoindre la communauté Slappyto. Bienvenue ! il y a 1 semaine
GregRock vient tout juste de rejoindre la communauté Slappyto. Bienvenue ! il y a 1 semaine
Chris927 vient tout juste de rejoindre la communauté Slappyto. Bienvenue ! il y a 2 semaines
Greeshma vient tout juste de rejoindre la communauté Slappyto. Bienvenue ! il y a 2 semaines
Ludo ZEFISH vient tout juste de rejoindre la communauté Slappyto. Bienvenue ! il y a 2 semaines
Nicobass1793 vient tout juste de rejoindre la communauté Slappyto. Bienvenue ! il y a 2 semaines
Indonesiae vient tout juste de rejoindre la communauté Slappyto. Bienvenue ! il y a 2 semaines