ConnexionConnexionInscription
B E A D G
131 connectés Aller à Sweepyto Guitare

Gossip - Perfect World [ Artiste ]

Publié par le
25/04/2013
5401 vues
Moyen 4
http://www.youtube.com/watch?v=3W4TNdLGeaA
    
        

**************************
* Gossip : Perfect World *
**************************

mesure = 4/4, tempo = 125, subdivision (-) = croche
suggestion de réglages :
    micro : 50% manche / 50% chevalet
    EQ = 100% bass / 50% mid / 50% treble

Intro :
 |: 3x                                                                  :|
G|--------|--------|--------|--------|--------|--------|--------|--------|
D|--------|--------|--------|--------|--------|--------|--------|--------|
A|--------|--------|--------|--------|--------|--------|666666--|---88888|
E|66666666|66666666|44444444|44444444|22222222|22222222|------11|111-----|

Couplet :
 |: 2x                                                                  :|
G|--------|--------|--------|--------|--------|--------|--------|--------|
D|--------|--------|--------|--------|--------|--------|--------|--------|
A|--------|--------|--------|--------|--------|--------|666666--|---88888|
E|66666666|66666666|44444444|44444444|22222222|22222222|------11|111-----|

G|---5+3--|--------|---5+3--|--------|---5+3--|--------|--------|--------|
D|--4----6|--------|--4----6|--------|--4-----|--------|--------|66666666|
A|-4------|--------|-4------|------64|-4-----4|--------|-------6|--------|
E|2-------|66666464|2-------|666666--|2-------|66666464|4444444-|--------|

Refrain :
G|--------|--------|--------|--------|--------|--------|--------|--------|
D|--------|--------|--------|--------|--------|--------|--------|--------|
A|--------|--------|--------|--------|--------|--------|666666--|---88888|
E|66666666|66666666|44444444|44444444|22222222|22222222|------11|111-----|

Couplet
Refrain

Refrain 2 :
G|--------|--------|--------|--------|--------|--------|-8-8-8-A|-A-A-A-A|
D|-4-4-4-4|-4-4-4-4|-6-6-6-6|-6-6-6-6|-4-4-4-4|-4-4-4-4|--------|--------|
A|--------|--------|--------|--------|--------|--------|6-6-6-8-|8-8-8-8-|
E|6-6-6-6-|6-6-6-6-|4-4-4-4-|4-4-4-4-|2-2-2-2-|2-2-2-2-|--------|--------|

Solo = Refrain 2

Pont :
 |: 8x   :|
G|+-------|
D|--------|
A|--------|
E|--------|

Refrain
Refrain 2
Refrain 2 >

=========================================================================================================================
Légende : A=10,B=11,C=12,...
          + = étouffer la corde (stopper le son)
          |: Nx :| = répéter N fois le passage entre |: et :|
          > = en diminuant le volume
=========================================================================================================================

Visitez http://www.ilovetabs.com pour d'autres tablatures "+R" pour guitare basse.

    
    

0 Commentaires : réagissez !

1 2 3 4 5
0 notes
Aucun commentaire !

En Live

Wario a commenté le topic [videothèque des sons] de mr gone il y a 4 jours
Lebollos59 vient tout juste de rejoindre la communauté Slappyto. Bienvenue ! il y a 5 jours
GregRock vient tout juste de rejoindre la communauté Slappyto. Bienvenue ! il y a 6 jours
Chris927 vient tout juste de rejoindre la communauté Slappyto. Bienvenue ! il y a 1 semaine
Greeshma vient tout juste de rejoindre la communauté Slappyto. Bienvenue ! il y a 1 semaine
Ludo ZEFISH vient tout juste de rejoindre la communauté Slappyto. Bienvenue ! il y a 1 semaine
Nicobass1793 vient tout juste de rejoindre la communauté Slappyto. Bienvenue ! il y a 1 semaine
Indonesiae vient tout juste de rejoindre la communauté Slappyto. Bienvenue ! il y a 1 semaine
Grandbill a commenté la tablature de Coup_de_pelle il y a 1 semaine