ConnexionConnexionInscription
B E A D G
155 connectés Aller à Sweepyto Guitare

Daft Punk - Instant Crush [ Artiste ]

Publié par le
31/05/2013
10628 vues
Débutant 4
http://www.youtube.com/watch?v=Ew0O_XL26kE
    
        



G|-------------------------------------|
D|-------------------------------------|
A|--9(x16)---6(x16)---1(x16)-----------|
E------------------------------4(x16)--| 


Refrain

G|-------------------------------------------------------|
D|-------8/6-----------4------4-------------6------------|
A|----------8------------------6-----6-6-----------------|
E|---6-------6---4---2----2-2------6------4-----1---1----|
    
    

4 Commentaires

1 2 3 4 5
2 notes
Notes pour Instant Crush Basse Tab - (Daft Punk) | Slappyto : 5/5 sur 2 notes
#4
11/09/2016 09:39:53

Bonjour,

 

Est-ce que quelqu'un aurait la tablature du refrain et de la fin en pdf ou sur Guitare Pro?

J'aimerais l'apprendre mais c'est chaud.

 

Merci

0
0
#3
08/06/2013 16:26:56

Petite variante du refrain :

 

G|-------------------------------------------------------|
D|--8---8---6h8--6-----------------------------6---------|
A|----8---8---------9------9--8--6-----6-6---------------|
E|----------------------9-----------6-------4-----1--1---|

 Il joue les mêmes notes dans la vidéo il me semble mais en se déplaçant un peu plus de la main gauche

0
0
#2
04/06/2013 20:17:51

Vas y accroche toi!!!

j'ai galéré au début aussi, il faut s’entraîner "à vide" sans la musique a faire les enchaînements, et après qu'en tu connais par cœur tu joue sur la musique  

La video c pas moi qui joue  

0
0
#1
04/06/2013 19:52:31

 

 

 Le refrain est chaud!!!!  Mais j adore cette chanson et je l apprenderai coûte que coûte. Tu pourrai (sur la vidéo) monter le son de ta basse... Stp

0
0

En Live

Wario a commenté le topic [videothèque des sons] de mr gone il y a 4 jours
Lebollos59 vient tout juste de rejoindre la communauté Slappyto. Bienvenue ! il y a 5 jours
GregRock vient tout juste de rejoindre la communauté Slappyto. Bienvenue ! il y a 6 jours
Chris927 vient tout juste de rejoindre la communauté Slappyto. Bienvenue ! il y a 1 semaine
Greeshma vient tout juste de rejoindre la communauté Slappyto. Bienvenue ! il y a 1 semaine
Ludo ZEFISH vient tout juste de rejoindre la communauté Slappyto. Bienvenue ! il y a 1 semaine
Nicobass1793 vient tout juste de rejoindre la communauté Slappyto. Bienvenue ! il y a 1 semaine
Indonesiae vient tout juste de rejoindre la communauté Slappyto. Bienvenue ! il y a 1 semaine
Grandbill a commenté la tablature de Coup_de_pelle il y a 1 semaine