ConnexionConnexionInscription
B E A D G
143 connectés Aller à Sweepyto Guitare

Bruno Mars - Locked Out Of Heaven [ Artiste ]

Publié par le
05/06/2013
4757 vues
Moyen 1
http://www.youtube.com/watch?v=Ox74xe6l2Yg
    
        


Intro
G|--------------------------------------------------------|
D|--------------------------------------------------------|
A|3-5---3-5-3-0-1---0-1--0--------------------------------|
E|--------------------------------1-3--33-3--33-3---------|


Pre-Chorus
G|--------------------------------------------------------|
D|----------------------77------77------77----7/3---------|
A|--------------------------------------------------------|
E|-1(x16)----55------55------55-----55--------------------|


Chorus
G|--------------------------------------------------------|
D|--------------------------------------------------------|
A|-1(x16)----------------------------------3(x16)---------|
E|--------------3(x16)------1(x16)------------------------|


Chorus2
G|------------------------------------------------------------------------------------------|
D|-----------2/8(x8)-------------------------------------------------------------4/10(x8)---|
A|-1(x8)--------------------------4/10(x8)---------------2/8(x8)-------3(x8)----------------|
E|----------------------3(x8)-------------------1(x8)---------------------------------------|

Bridge
G|--------------------------------------------------------|
D|--------------------------------------------------------|
A|--1------------------------------------------------3----|
E|----------------3------------------1--------------------|



G|--------------------------------------------------------------------------------|
D|----------2/8------------------------------------------------------4/10---------|
A|-1--1----------------------4/10-------------2/8--------3-3----------------------|
E|------------------3-3---------------1-1-----------------------------------------|
    
    

3 Commentaires

1 2 3 4 5
5 notes
Notes pour Locked Out Of Heaven Basse Tab - (Bruno Mars) | Slappyto : 4/5 sur 5 notes
#3
09/06/2013 10:36:19

Tres facile à jouer avec un petit peu d'entrainement, et quel morceau de bruno Mars !!!

0
+1
#2
07/06/2013 11:17:17

c clair je la kiff elle et c basse 

0
+1
#1
06/06/2013 13:19:22
cette bassiste  
ses cover de Jamiroquai sont sublimes ..
0
0

En Live

Yvesson a commenté le topic [Amateurs de photographie, bon-jour/soir !] de cha0s-the0ry il y a 25 minutes
Yvesson a commenté le topic [Le Topic du Freepost 7] de Vikie il y a 33 minutes
Yvesson, sam et YannGGP ont commenté le topic [La mort de Slappyto?] de kurt il y a 33 minutes
Glimmerkajal vient tout juste de rejoindre la communauté Slappyto. Bienvenue ! il y a 2 jours
Wario a commenté le topic [videothèque des sons] de mr gone il y a 1 semaine
Lebollos59 vient tout juste de rejoindre la communauté Slappyto. Bienvenue ! il y a 1 semaine
GregRock vient tout juste de rejoindre la communauté Slappyto. Bienvenue ! il y a 1 semaine
Chris927 vient tout juste de rejoindre la communauté Slappyto. Bienvenue ! il y a 2 semaines
Greeshma vient tout juste de rejoindre la communauté Slappyto. Bienvenue ! il y a 2 semaines