ConnexionConnexionInscription
B E A D G
181 connectés Aller à Sweepyto Guitare

Daft Punk - Instant Crush [ Artiste ]

Publié par le
05/06/2013
4876 vues
Débutant 4
http://www.youtube.com/watch?v=Ew0O_XL26kE
    
        



G|-------------------------------------|
D|-------------------------------------|
A|--9(x16)---6(x16)---1(x16)-----------|
E------------------------------4(x16)--| 


Refrain

G|-------------------------------------------------------|
D|-------8/6-----------4------4-------------6------------|
A|----------8--------------------6---6-6-----------------|
E|---6-------6---4---2----2-2------6------4-----1---1----|
    
    

1 Commentaire

1 2 3 4 5
2 notes
Notes pour Instant Crush Basse Tab - (Daft Punk) | Slappyto : 5/5 sur 2 notes
#1
07/07/2013 12:20:35
super morceau ta basse sonne du toner  epiphone  Thunderbird
0
0

En Live

Wario a commenté le topic [videothèque des sons] de mr gone il y a 5 jours
Lebollos59 vient tout juste de rejoindre la communauté Slappyto. Bienvenue ! il y a 5 jours
GregRock vient tout juste de rejoindre la communauté Slappyto. Bienvenue ! il y a 6 jours
Chris927 vient tout juste de rejoindre la communauté Slappyto. Bienvenue ! il y a 1 semaine
Greeshma vient tout juste de rejoindre la communauté Slappyto. Bienvenue ! il y a 1 semaine
Ludo ZEFISH vient tout juste de rejoindre la communauté Slappyto. Bienvenue ! il y a 1 semaine
Nicobass1793 vient tout juste de rejoindre la communauté Slappyto. Bienvenue ! il y a 1 semaine
Indonesiae vient tout juste de rejoindre la communauté Slappyto. Bienvenue ! il y a 1 semaine
Grandbill a commenté la tablature de Coup_de_pelle il y a 1 semaine