ConnexionConnexionInscription
B E A D G
151 connectés Aller à Sweepyto Guitare

The Who - I can't explain [ Artiste ]

Publié par le
09/06/2013
3057 vues
Débutant 2
http://www.youtube.com/watch?v=h3h--K5928M
    
        

Accordage standart (E, A, D, G)

 |------x16-----|
|----------------|----------------|
|----------------|----------------|
|7---55------7756|7--5------------|
|--------5-------|------7---------|


|----------------|----------------|
|----------------|7--7----9--9----|
|7--7----7--7----|------------7756|
|----------------|----------------|


 |------x2------|
|----------------|
|----------------|
|7---55------7756|
|--------5-------|


 |------x2------|
|----------------|
|----------------|
|7-775-55----7756|
|--------5-55----|


 |------x3------|
|----------------|
|----------------|
|7---55------7756|
|--------5-------|


|----------------|----------------|
|----------------|7--7----9--9----|
|7--7----7--7----|------------7756|
|----------------|----------------|


 |------x2------|
|----------------|
|----------------|
|7---55------7756|
|--------5-------|


 |------x4------|
|----------------|
|----------------|
|7-775-55----7756|
|--------5-55----|


 |------x3------|
|----------------|----------------|
|----------------|----------------|
|7---55------7756|7--55-----7-----|
|--------5-------|-------5--------|
    
    

0 Commentaires : réagissez !

1 2 3 4 5
0 notes
Aucun commentaire !

En Live

Yvesson a commenté le topic [Amateurs de photographie, bon-jour/soir !] de cha0s-the0ry il y a 47 minutes
Yvesson a commenté le topic [Le Topic du Freepost 7] de Vikie il y a 55 minutes
Yvesson, sam et YannGGP ont commenté le topic [La mort de Slappyto?] de kurt il y a 56 minutes
Glimmerkajal vient tout juste de rejoindre la communauté Slappyto. Bienvenue ! il y a 2 jours
Wario a commenté le topic [videothèque des sons] de mr gone il y a 1 semaine
Lebollos59 vient tout juste de rejoindre la communauté Slappyto. Bienvenue ! il y a 1 semaine
GregRock vient tout juste de rejoindre la communauté Slappyto. Bienvenue ! il y a 1 semaine
Chris927 vient tout juste de rejoindre la communauté Slappyto. Bienvenue ! il y a 2 semaines
Greeshma vient tout juste de rejoindre la communauté Slappyto. Bienvenue ! il y a 2 semaines