ConnexionConnexionInscription
B E A D G
122 connectés Aller à Sweepyto Guitare

Coolio - Gangsta Paradise [ Artiste ]

Publié par le
31/08/2013
5217 vues
Débutant 4
http://www.youtube.com/watch?v=ryCpg8f45gc
    
        

                               Gangsta Paradise                                 


                                                                          Coolio
Basse
T=160


      W                   W                   W                  
G||--------------------|-------------------|--------------------|
D||*-------------------|-------------------|--------------------|
A||--------------------|-------------------|--------------------|
E||*--4----------------|-------------------|--------------------|
B||--------------------|--6----------------|--8s----------------|


  W                      H        E  E   E  E     H        H         
--------------------||-------------------------|--------------------|
-------------------*||*------------------------|--------------------|
--------------------||----------------------3--|--1-----------------|
-------------------*||*--4--------L--1h--4-----|-----------4--------|
--1-----------------||-------------------------|--------------------|


  H        E  E   E  E     H        Q    Q          W                 
------------------------|----------------------||--------------------|
------------------------|--1--------0---------*||*-------------------|
---------------------3--|----------------3-----||--------------------|
--3--------L--1h--3-----|---------------------*||*--4----------------|
------------------------|----------------------||--------------------|


  W                   W                    W                 4x
-------------------|--------------------|--------------------||
-------------------|--------------------|-------------------*||
-------------------|--------------------|--------------------||
-------------------|--------------------|-------------------*||
--6----------------|--8s----------------|--1-----------------||


   H        E  E   E  E     H        H           H        E  E   E  E   
-------------------------|--------------------|------------------------|
*------------------------|--------------------|------------------------|
----------------------3--|--1-----------------|---------------------3--|
*--4--------L--1h--4-----|-----------4--------|--3--------L--1h--3-----|
-------------------------|--------------------|------------------------|


  H        Q    Q     4x  W                   W                 
----------------------||-------------------|-------------------|
--1--------0---------*||-------------------|-------------------|
----------------3-----||-------------------|-------------------|
---------------------*||--4----------------|-------------------|
----------------------||-------------------|--6----------------|


  W                    W                   W                 
--------------------|-------------------|-------------------|
--------------------|-------------------|-------------------|
--------------------|-------------------|-------------------|
--------------------|-------------------|--4----------------|
--8s----------------|--1----------------|-------------------|


  W                                                         
-------------------|-------------------|-------------------|
-------------------|-------------------|-------------------|
-------------------|-------------------|-------------------|
-------------------|-------------------|-------------------|
--6----------------|-------------------|-------------------|


    W                   W                   W                  
|--------------------|-------------------|--------------------|
|*-------------------|-------------------|--------------------|
|--------------------|-------------------|--------------------|
|*--4----------------|-------------------|--------------------|
|--------------------|--6----------------|--8s----------------|


  W                 6x   H        E  E   E  E     H        H         
--------------------||-------------------------|--------------------|
-------------------*||*------------------------|--------------------|
--------------------||----------------------3--|--1-----------------|
-------------------*||*--4--------L--1h--4-----|-----------4--------|
--1-----------------||-------------------------|--------------------|


  H        E  E   E  E     H        Q    Q     4x   W                 
------------------------|----------------------||--------------------|
------------------------|--1--------0---------*||*-------------------|
---------------------3--|----------------3-----||--------------------|
--3--------L--1h--3-----|---------------------*||*--4----------------|
------------------------|----------------------||--------------------|


  W                   W                    W                 4x
-------------------|--------------------|--------------------||
-------------------|--------------------|-------------------*||
-------------------|--------------------|--------------------||
-------------------|--------------------|-------------------*||
--6----------------|--8s----------------|--1-----------------||


   H        E  E   E  E     H        H           H        E  E   E  E   
-------------------------|--------------------|------------------------|
*------------------------|--------------------|------------------------|
----------------------3--|--1-----------------|---------------------3--|
*--4--------L--1h--4-----|-----------4--------|--3--------L--1h--3-----|
-------------------------|--------------------|------------------------|


  H        Q    Q    10x         8x
----------------------||---------||
--1--------0---------*||*-------*||
----------------3-----||---------||
---------------------*||*-------*||
----------------------||---------||




Duration Legend
---------------
W - whole
H - half
Q - quarter
E - 8th
S - 16th
T - 32nd
X - 64th
. - note dotted
|-n-|  - n-tuplets


Tablature Legend
----------------
L - tied note
x - dead note
g - grace note
(n) - ghost note
> - accentuded note
NH - natural harmonic
AH - artificial harmonic
TH - tapped harmonic
SH - semi harmonic
PH - pitch harmonic
h - hammer on
p - pull off
b - bend
br - bendRelease
pb - preBend
pbr - preBendRelease
brb - bendReleaseBend
\n/ - tremolo bar dip
\n - tremolo bar dive
-/n - tremolo bar Release up
/n\ - tremolo bar inverted dip
/n - tremolo bar return
-\n - tremolo bar Release down
S - shift slide
s - legato slide
/ -  slide into from below or out of upwards
\ -  slide into from above or out of downwards
~ - vibrato
W - wide vibrato
tr - trill
TP - tremolo picking
T - tapping
S - slap
P - pop
< - fade in
^ - brush up
v - brush down

    
    

0 Commentaires : réagissez !

1 2 3 4 5
1 note
Notes pour Gangsta Paradise Basse Tab - (Coolio) | Slappyto : 4/5 sur 1 note
Aucun commentaire !

En Live

Glimmerkajal vient tout juste de rejoindre la communauté Slappyto. Bienvenue ! il y a 15 heures
Wario a commenté le topic [videothèque des sons] de mr gone il y a 1 semaine
Lebollos59 vient tout juste de rejoindre la communauté Slappyto. Bienvenue ! il y a 1 semaine
GregRock vient tout juste de rejoindre la communauté Slappyto. Bienvenue ! il y a 1 semaine
Chris927 vient tout juste de rejoindre la communauté Slappyto. Bienvenue ! il y a 1 semaine
Greeshma vient tout juste de rejoindre la communauté Slappyto. Bienvenue ! il y a 1 semaine
Ludo ZEFISH vient tout juste de rejoindre la communauté Slappyto. Bienvenue ! il y a 2 semaines
Nicobass1793 vient tout juste de rejoindre la communauté Slappyto. Bienvenue ! il y a 2 semaines
Indonesiae vient tout juste de rejoindre la communauté Slappyto. Bienvenue ! il y a 2 semaines