ConnexionConnexionInscription
B E A D G
157 connectés Aller à Sweepyto Guitare

Bob Marley - No Woman No Cry [ Artiste ]

Publié par le
14/08/2013
29942 vues
Débutant 1
http://www.youtube.com/watch?v=x59kS2AOrGM
    
        

6 tirets = 1 temps 

Tempo: 80

Thème:

G|------------------------|------------------------|------------------------|------------------------|
D|------------------------|------------------------|------------------------|------------3--2--0-----|
A|---------------0--2-----|3-----------2-----------|-0----------------------|---------------------3--|
E|------------3--------3--|------------------------|----------1-------------|3-----------------------|
              |__|  |__|   |           |             |.       |_             |           |__|  |__|

 |------------------------|------------------------|------------------------|------------------------|
 |------------------------|------------------------|------------------------|------------3--2--0-----|
 |---------------0--2-----|3--------3--2---------2-|-0----------------------|---------------------3--|
 |------------3--------3--|------------------------|-------0--1-------------|3-----------------------|
             |__|  |__|   |.       |_ |.        |_  |     |__|              |           |__|  |__|


Tout ça en boucle ;)
    
    

1 Commentaire

1 2 3 4 5
0 notes
#1
15/08/2013 09:56:30

bien,mais pas tout a fait ça(la fin ne pas faire le riff,jouer les note F-C,entre la 21s et la 24s,on y entend bien)

0
0

En Live

Glimmerkajal vient tout juste de rejoindre la communauté Slappyto. Bienvenue ! il y a 2 jours
Wario a commenté le topic [videothèque des sons] de mr gone il y a 1 semaine
Lebollos59 vient tout juste de rejoindre la communauté Slappyto. Bienvenue ! il y a 1 semaine
GregRock vient tout juste de rejoindre la communauté Slappyto. Bienvenue ! il y a 1 semaine
Chris927 vient tout juste de rejoindre la communauté Slappyto. Bienvenue ! il y a 2 semaines
Greeshma vient tout juste de rejoindre la communauté Slappyto. Bienvenue ! il y a 2 semaines
Ludo ZEFISH vient tout juste de rejoindre la communauté Slappyto. Bienvenue ! il y a 2 semaines
Nicobass1793 vient tout juste de rejoindre la communauté Slappyto. Bienvenue ! il y a 2 semaines
Indonesiae vient tout juste de rejoindre la communauté Slappyto. Bienvenue ! il y a 2 semaines