ConnexionConnexionInscription
B E A D G
134 connectés Aller à Sweepyto Guitare

Bruno Mars - Locked Out Of Heaven [ Artiste ]

Publié par le
14/08/2013
4425 vues
Moyen 1
http://www.youtube.com/watch?v=13oXf68zRcM
    
        

VERSE
G|--------------------------------------------------------------------------------|
D|--------------------------------------------------------------------------------|
A|-----------3---5-------3h5-3-0-1-------0h1-0------------------------------------|
E|---------------------------------------------1-3---3-3---3-----3-3---3----------|

   

PRE-CHORUS
G|------------------------------------------------------------------|
D|-------------------------------------5h7-----5h7-----5h7-----5h7--|
A|---------------------------------0-0-----0-0-----0-0-----0-0------|
E|-1-1-1-1-1-1-1-1-1-1-1-1-1-1-1-1----------------------------------|

   

CHORUS
G|------------------------------------------------------------------|
D|------------------------------------------------------------------|
A|-1-1-1-1-1-1-1-1-1-1-1-1-1-1-1-1----------------------------------|
E|---------------------------------3-3-3-3-3-3-3-3-3-3-3-3-3-3-3-3--|

   


G|------------------------------------------------------------------|
D|------------------------------------------------------------------|
A|---------------------------------3-3-3-3-3-3-3-3-3-3-3-3-3-3-3-3--|
E|-1-1-1-1-1-1-1-1-1-1-1-1-1-1-1-1----------------------------------|

    
    

2 Commentaires

1 2 3 4 5
0 notes
#2
05/09/2013 14:59:34
Surtout qu'elle est erronnée. Il manque les variations du chorus.
0
0
#1
14/08/2013 15:38:14
Déjà deux tablatures de cette chanson !
0
0

En Live

Wario a commenté le topic [videothèque des sons] de mr gone il y a 4 jours
Lebollos59 vient tout juste de rejoindre la communauté Slappyto. Bienvenue ! il y a 5 jours
GregRock vient tout juste de rejoindre la communauté Slappyto. Bienvenue ! il y a 6 jours
Chris927 vient tout juste de rejoindre la communauté Slappyto. Bienvenue ! il y a 1 semaine
Greeshma vient tout juste de rejoindre la communauté Slappyto. Bienvenue ! il y a 1 semaine
Ludo ZEFISH vient tout juste de rejoindre la communauté Slappyto. Bienvenue ! il y a 1 semaine
Nicobass1793 vient tout juste de rejoindre la communauté Slappyto. Bienvenue ! il y a 1 semaine
Indonesiae vient tout juste de rejoindre la communauté Slappyto. Bienvenue ! il y a 1 semaine
Grandbill a commenté la tablature de Coup_de_pelle il y a 1 semaine