ConnexionConnexionInscription
B E A D G
215 connectés Aller à Sweepyto Guitare

Chuck Berry - Johny B Good [ Artiste ]

Publié par le
13/07/2013
7845 vues
Débutant 4
http://www.youtube.com/watch?v=I8JULmUlGDA
    
        

G----------------------------------------------------------|
D---------4-5-4--------------------------------------------|
A-----4-7-------7-4----------------------------------------|     
E---5------------------------------------------------------|

G---------4-5-4----------------|
D-----4-7-------7-4------------| x1
A---5--------------------------|
E------------------------------|

G---------6-7-6----------------|
D-----6-9-------6-9------------| x1
A---7--------------------------|
E------------------------------|
    
    

0 Commentaires : réagissez !

1 2 3 4 5
1 note
Notes pour Johny B Good Basse Tab - (Chuck Berry) | Slappyto : 3/5 sur 1 note
Aucun commentaire !

En Live

Aeros'Miss et Malicia ont commenté le topic [Le Topic du Freepost 7] de Vikie il y a 1 jour
Epic001 a commenté le topic [Comment améliorer sa basse?] de Eux31 il y a 2 jours
Epic001 a commenté le topic [Besoin avis JB] de escaliyo il y a 2 jours
Epic001 vient tout juste de rejoindre la communauté Slappyto. Bienvenue ! il y a 2 jours
Paboss24 vient tout juste de rejoindre la communauté Slappyto. Bienvenue ! il y a 3 jours
Morrighan08 a commenté le topic [Cherche groupe] de Phil08140 il y a 3 jours
Morrighan08 vient tout juste de rejoindre la communauté Slappyto. Bienvenue ! il y a 3 jours
15goul vient tout juste de rejoindre la communauté Slappyto. Bienvenue ! il y a 4 jours
Gib74 vient tout juste de rejoindre la communauté Slappyto. Bienvenue ! il y a 4 jours