ConnexionConnexionInscription
B E A D G
92 connectés Aller à Sweepyto Guitare

Jamiroquai - we getting' down [ Artiste ]

Publié par le
03/10/2013
4353 vues
Débutant 1
http://www.youtube.com/watch?v=XfB7y24PfTg
    
        


G
D
A
E

 intro piano
|-10-10-9~--8-8-7~--6-6-5~--8-8-7~-|
|----------------------------------|
|----------------------------------| x2
|----------------------------------|


|-----------------------------------------------|
|------10-------------8----------8-6-66-7-8-----|
|---10-------------8--------5-6-------------8---| répéter
|-8-------88-88--6------6-8-------------------6-|

verse
|-7-8-9---5-6-7---6-6-5---8-8-7-|
|-------------------------------|
|-5-6-7---3-4-5---4-4-3---6-6-5-| répéter
|-------------------------------|


|----7---8---9----5---6---7-|-6-6--5--8-8--7-|
|---------------------------|----------------|
|---------------------------|----------------| répéter
|-6---7---8-----4---5---6---|-5-5--4--7-7--6-|

verse
|-7-8-9---5-6-7---6-6-5---8-8-7-|
|-------------------------------|
|-5-6-7---3-4-5---4-4-3---6-6-5-| répéter
|-------------------------------|


|-----------------------------------------------|
|------10-------------8----------8-6-66-7-8-----| répéter
|---10-------------8--------5-6-------------8---| 
|-8-------88-88--6------6-8-------------------6-|
    
    

0 Commentaires : réagissez !

1 2 3 4 5
0 notes
Aucun commentaire !

En Live

Saikodoll vient tout juste de rejoindre la communauté Slappyto. Bienvenue ! il y a 2 jours
Bertrand44 vient tout juste de rejoindre la communauté Slappyto. Bienvenue ! il y a 3 jours
OLIVIER59500 vient tout juste de rejoindre la communauté Slappyto. Bienvenue ! il y a 3 jours
Jazzbassfoufou vient tout juste de rejoindre la communauté Slappyto. Bienvenue ! il y a 4 jours
MrSpit a commenté le topic [Sandberg Fretless] de MrSpit il y a 4 jours