ConnexionConnexionInscription
B E A D G
163 connectés Aller à Sweepyto Guitare

Muse - Panic station [ Artiste ]

Publié par le
16/11/2013
7611 vues
Moyen 1
http://www.youtube.com/watch?v=t12Y_gdbGQQ
    
        

Intro
G|-----------7/9-------------19191919---|
D|-----------7/9-------------19191919---| x2
A|--------------------------------------|
E|--0--0--0--------0-0-0-0--------------|

Verse
G|-----------7/9-------------19191919---|
D|-----------7/9-------------19191919---| x2
A|--------------------------------------|
E|--0--0--0--------0-0-0-0--------------|

G|-----------13/12-----------19191919---|
D|-----------13/12-----------19191919---|
A|--0--0--0-----------------------------|
E|-------------------3-3-3-3------------|

G|-----------7/9-------------19191919---|
D|-----------7/9-------------19191919---|
A|--------------------------------------|
E|--0--0--0--------0-0-0-0--------------|

Chorus
G|------------------------------------------|
D|---2-2-2-4-5-5-5-6-7-7-7-9-10-10--12--13--|
A|------------------------------------------|
E|--0-0-0-2-3-3-3-4-5-5-5-7-8--8--10--11----|

G|----------------------------------|
D|---2-2-2-4-5-5-5-6-7-7-7-9--------|
A|----------------------------------|
E|--0-0-0-2-3-3-3-4-5-5-5-7-8~------|

    
    

0 Commentaires : réagissez !

1 2 3 4 5
2 notes
Notes pour Panic Station Basse Tab - (Muse) | Slappyto : 5/5 sur 2 notes
Aucun commentaire !

En Live

Manyak et Wario ont commenté le topic [Photos de vos basses] de lucas il y a 2 heures