ConnexionConnexionInscription
B E A D G
117 connectés Aller à Sweepyto Guitare

Kassav - Pié Mwen [ Artiste ]

Publié par le
24/02/2014
7340 vues
Moyen 1
http://www.youtube.com/watch?v=guImtt5dgos
    
        

                                   Pié Mwen                                     


                                                                          Kassav
basse 4c
T=118



      E  E  E  E  E  E  Q       E  E  E  E  E  E  Q     
G||--------------------------|-------------------------|
D||*-------------------------|-------------------------|
A||*--7----------------------|--------5-----7----------|
E||---------5-----8----------|--8----------------------|


  E  E  E  E  E   E   E  E     E  E  Q    E  E  Q     4x
----------------------------|-------------------------||
--7-------------------------|------------------------*||
--------7-------------------|------------------------*||
--------------3S--8--10-----|--3--3-------3--5--------||


   E  E  E  E  E   E   E  E     E  E  Q    E  E  Q       
-----------------------------|-------------------------||
*--7-------------------------|------------------------*||
*--------7-------------------|------------------------*||
---------------3S--8--10-----|--3--3-------3--5--------||


   E  E  E  E  E  E  E  E     E  E  E  E  E  E  E  E   
---------------------------|--------------------------|
*--------------------------|--------------7-----------|
*--7-----------7-----5-----|--------------------------|
---------5-----------------|--3-----5-----------5-----|


  E  E  E  E  E  E  E  E     E  E  E  E  E  E  E  E     
--------------------------|---------------------------||
--------------------------|--------------------------*||
--7-----------7-----5-----|--------------------------*||
--------5-----------------|--5-----3-----3-----5------||


  H        E   E   E  E     E  E  Q    E  E  Q       E  E  E  E  E   E   E  E   
-------------------------|------------------------|----------------------------|
-------------------------|------------------------|--7-------------------------|
-------------------------|------------------------|--------7-------------------|
-----------3S--8--10-----|--3--3-------3--5-------|--------------3S--8--10-----|


  E  E  Q    E  E  Q         E  E  E  E  E  E  Q       E  E  E  E  E  E  Q     
------------------------||--------------------------|-------------------------|
------------------------||*-------------------------|-------------------------|
------------------------||*--7----------------------|--------5-----7----------|
--3--3-------3--5-------||---------5-----8----------|--8----------------------|


  E  E  E  E  E   E   E  E     E  E  Q    E  E  Q     3x
----------------------------|-------------------------||
--7-------------------------|------------------------*||
--------7-------------------|------------------------*||
--------------3S--8--10-----|--3--3-------3--5--------||


   E  E  E  E  E  E  E  E     E   E   E  E  E  E  E  E   
---------------------------|----------------------------|
*--------------------------|----------------7-----------|
*--7-----------7-----5-----|----------------------------|
---------5-----------------|--3S--8--10-----------5-----|


  E  E  E  E  E  E  E  E     E  E  E  E  E  E  E  E     
--------------------------|---------------------------||
--------------------------|--------------------------*||
--7-----------7-----5-----|--------------------------*||
--------5-----------------|--5-----3-----3-----5------||


   E  E  E  E  E  E  E  E     E  E  E  E  E  E  E  E   
---------------------------|--------------------------|
*--------------------------|--------------------------|
*--7-----------7-----5-----|--------------0-----------|
---------5-----------------|--3-----5-----------3-----|


  E  E  E  E  E  E  E  E     E  E  E  E  E  E  E  E     
--------------------------|---------------------------||
--------------------------|--------------------------*||
--7-----------7-----5-----|--------------------------*||
--------5-----------------|--5-----3-----3-----5------||


   E  E  E  E  E  E  E  E     E  E  E  E  E  E  E  E   
---------------------------|--------------------------|
*--------------------------|--------------------------|
*--7-----------7-----5-----|--------------5-----------|
---------5-----------------|--5-----3-----------5-----|


  E  E  E  E  E  E  E  E     E  E  E  E  E  E  E  E   3x
--------------------------|---------------------------||...
--------------------------|--------------------------*||...
--7-----------7-----5-----|--------------5-----------*||...
--------5-----------------|--5-----3-----------5------||...


Et ainsi de suite, à varier selon envie...






Duration Legend
---------------
W - whole
H - half
Q - quarter
E - 8th
S - 16th
T - 32nd
X - 64th
. - note dotted
|-n-|  - n-tuplets


Tablature Legend
----------------
L - tied note
x - dead note
g - grace note
(n) - ghost note
> - accentuded note
NH - natural harmonic
AH - artificial harmonic
TH - tapped harmonic
SH - semi harmonic
PH - pitch harmonic
h - hammer on
p - pull off
b - bend
br - bendRelease
pb - preBend
pbr - preBendRelease
brb - bendReleaseBend
\n/ - tremolo bar dip
\n - tremolo bar dive
-/n - tremolo bar Release up
/n\ - tremolo bar inverted dip
/n - tremolo bar return
-\n - tremolo bar Release down
S - shift slide
s - legato slide
/ -  slide into from below or out of upwards
\ -  slide into from above or out of downwards
~ - vibrato
W - wide vibrato
tr - trill
TP - tremolo picking
T - tapping
S - slap
P - pop
< - fade in
^ - brush up
v - brush down

    
    

0 Commentaires : réagissez !

1 2 3 4 5
0 notes
Aucun commentaire !

En Live

Didbass09 a commenté le topic [musicman sterling USA ] de 3dd-titix il y a 5 heures
Capt. Roca 974 et KaKemono ont commenté le topic [Reglage pour grOs tirant nylon] de Capt. Roca 974 il y a 12 heures
JV62 vient tout juste de rejoindre la communauté Slappyto. Bienvenue ! il y a 16 heures
Darkkimhari, MGKS, grobass, Groumph! et erix ont commenté le topic [Basse sur mesure made in China] de darkkimhari il y a 19 heures
OverSeaS vient tout juste de rejoindre la communauté Slappyto. Bienvenue ! il y a 1 jour
Erix a commenté le topic [Warwick Thumb NT état neuf] de chevaliernoir il y a 1 jour
Erix a voté pour le message de chevaliernoir il y a 1 jour
Erix a voté pour le message de MGKS il y a 1 jour
Erix et MGKS ont voté pour le message de Groumph! il y a 1 jour