ConnexionConnexionInscription
B E A D G
154 connectés Aller à Sweepyto Guitare

Funkadelic - No Compute [ Artiste ]

Publié par le
20/12/2013
4494 vues
Débutant 1
http://www.youtube.com/watch?v=iGJXKd_BMvY
    
        


No Compute 
Funkadelic 
Cosmic Slop 



Tempo: 126
Entrée de la basse à 0:08 




G |-------------------------------------------------------------------------
D |-------------------------------------------------------------------------
A |7-6-4-----4---6-7-------4-67----------7---7------6---6-4---4---------6-7-
E |------4-2---7-----7-54-------77-77-77---7---7654---4-----4---4-5-6-7----4
    
    

4 Commentaires

1 2 3 4 5
1 note
Notes pour No Compute Basse Tab - (Funkadelic) | Slappyto : 5/5 sur 1 note
#4
24/02/2014 15:07:43

Oui c'étais bien a l'envers, j'ai édité. 

C'est marrant ca ne m'a pas choqué une seconde  

0
0
#3
02/01/2014 17:23:05

G|----------------|----------------|----------------|----------------|
D|----------------|----------------|----------------|----------------|
A |7-6-4-----4---6-7-------4-67----------7---7------6---6-4---4---------6-7
E |------4-2---7-----7-54-------77-77-77---7---7654---4-----4---4-5-6-7----
0
0
#2
02/01/2014 17:20:07

C'est à l'envers les cordes non ?

0
0
#1
20/12/2013 16:08:51

c'est cool ça !!!

bon week

 

0
0

En Live

Mushaloni a commenté le topic [Besoin d'un bricoleur !] de Mushaloni il y a 2 heures
Manyak et Wario ont commenté le topic [Photos de vos basses] de lucas il y a 1 jour