ConnexionConnexionInscription
B E A D G
104 connectés Aller à Sweepyto Guitare

Avenged Sevenfold - Nightmare-Avenged Sevenfold (A7X) [ Artiste ]

Publié par le
24/02/2014
8389 vues
Avancé 1
http://www.youtube.com/watch?v=94bGzWyHbu0
    
        

Intro

G|------------------------------------------------------------------|
D|------------------------------------------------------------------|
A|------------------------------------------------------------------|
D|-0~0000-----0~0000-----0~0000--000-000-000-000-000-000-000-000~~~-|

G|----------------------------------------------------|
D|----------------------------------------------------|
A|-------------------------------1~111-2~222-3~3334~~-|
D|-00000000000000~~~0000000000000---------------------|

Intro 2

G|------------------------------------------------------------------|
D|------------------------------------------------------------------|
A|------------------------------------------------------------------|
D|-00000000000000000000000000000000000000000000000000000000000-3/12-|

Verse

G|----------------------------------------------------------------|
D|----------------------------------------------------------------|
A|----------------------------------------------------------------| 2x
D|-3~-0--000000-3~-0--000000-3~-0--000000-5-333-6-333-5-333-6-333-|		Pre-Chorus

G|---------------------------------------------------------------|	|-------------------------|
D|---------------------------------------------------------------|	|-------------------------|
A|---------------------------------------------------------------| 2x   |-------------------------|
D|-3~-000-3-00-3-00-3-00-303-00-3-00-3-0-5-333-6-333-5-333-6-333-|	|-5-333-6-333-5-333-6-333-|

Chorus

G|---------------------------------------------|
D|---------------------------------------------|
A|-----3~~-----1~~-----3~530-----1~~-000000000-|
D|-0~~-----3~~-----0~~-------3~~---------------|

Pos-Chorus

G|------------------------------------------------------------------|
D|------------------------------------------------------------------|
A|------------------------------------------------------------------|
D|-00000000000000000000000000000000000000000000000000000000000-3/12-|

Verse 2

G|----------------------------------------------------------------|
D|----------------------------------------------------------------|
A|----------------------------------------------------------------| 2x
D|-3~-0--000000-3~-0--000000-3~-0--000000-5-333-6-333-5-333-6-333-|		Pre-Chorus

G|---------------------------------------------------------------|	|-------------------------|
D|---------------------------------------------------------------|	|-------------------------|
A|---------------------------------------------------------------| 2x   |-------------------------|
D|-3~-000-3-00-3-00-3-00-303-00-3-00-3-0-5-333-6-333-5-333-6-333-|	|-5-333-6-333-5-333-6-333-|

Chorus 2

G|-----------------------------------|	  |------------|
D|-----------------------------------|	  |------------|
A|-----3~~-----1~~-----3~530-----1~~-| 2x |-000000000-|
D|-0~~-----3~~-----0~~-------3~~-----|	  |------------|

Ponte

G|----------------------------------------------------------------------------|
D|----------------------------------------------------------------------------|
A|-------------------------------------------------------1~111-2~222-3~333-4~-|
D|------0~-0000~-0000~-0000~-0000~-0000~-0000~-0000~-000----------------------|


G|---------------------------------------------------------------------------------|
D|---------------------------------------------------------------------------------|
A|-------------------------------------------------------------1111-2222-3333-4444-| 2X
D|-0--0030-0-0030-003~-0--0030-0-0030-003~-0--0030-0-0030-003~---------------------|

Ponte 2

G|--------------------------------------------------| _ |-------------------|
D|--------------------------------------------------| _ |-------------------|
A|--------------------------------------------------| 3x |-11111111111111-2-|
D|-3~-000-3-00-3-00-3-00-303-00-3-00-303-00-3-00-30-| _ |-------------------|

G|--------------------------------------------------|
D|--------------------------------------------------|
A|--------------------------------------------------| 3x
D|-3~-000-3-00-3-00-3-00-303-00-3-00-303-00-3-00-30-|

Ponte 3

G|----------------------------------|
D|------------------------------4-0-|
A|-1-111-111-111-113-333-333-33-----|
D|----------------------------------|

G|----------------------------------|
D|---------------------------7-5-2--|
A|-1-111-111-111-113-333-333--------|
D|----------------------------------|

G|----------------------------------|
D|------------------------------4-0-|
A|-1-111-111-111-113-333-333-33-----|
D|----------------------------------|

G|------------------------------------------|
D|------------------------------------------|
A|-1-111-111-111-113-333-334444444444444444-|
D|------------------------------------------|

Pre-Chorus

G|------------------------------------------------------------------|
D|------------------------------------------------------------------|
A|------------------------------------------------------------------|
D|-00000000000000000000000000000000000000000000000000000000000-3/12-|

Chorus 2

G|-----------------------------------|	  |-----------|
D|-----------------------------------|	  |-----------|
A|-----3~~-----1~~-----3~530-----1~~-| 2x |000000000-|
D|-0~~-----3~~-----0~~-------3~~-----|	  |-----------|


Enjoy!!
    
    

0 Commentaires : réagissez !

1 2 3 4 5
1 note
Notes pour Nightmare-Avenged Sevenfold (A7X) Basse Tab - (Avenged Sevenfold) | Slappyto : 5/5 sur 1 note
Aucun commentaire !

En Live

JR BASS, escaliyo et grobass ont commenté le topic [HELP CONFIG AMPLI !] de JR BASS il y a 9 heures
Fred18 vient tout juste de rejoindre la communauté Slappyto. Bienvenue ! il y a 10 heures
Escaliyo a voté pour le message de grobass il y a 13 heures
Escaliyo a commenté le topic [Basse pour débuter ] de Patmustang il y a 20 heures
Ray a voté pour le message de grobass il y a 1 jour
Jerem65 et grobass ont commenté le topic [Et vous, vous écoutez quoi maintenant ?] de nono il y a 1 jour