ConnexionConnexionInscription
B E A D G
126 connectés Aller à Sweepyto Guitare

The Brand New Heavies - Bonafied Funk [ Artiste ]

Publié par le
24/02/2014
9196 vues
Débutant 1
http://www.deezer.com/track/3075711
    
        

                  x12
G:|------------------|
D:|------------------|
A:|------------------|
E:|-55---55-5---55-5-|

                        x4
G:|-----|-----------------|-----------------|-----------------|----------------------|
D:|-----|-----------------|-----------------|-----------------|----------------5-7-9-|
A:|-5h7-|-----------5h7---|-----------------|-----------5h7---|-----------5h7--------|
E:|-----|-5h7--5h7--------|-5h7--5h7--0-----|-5h7--5h7--------|-5h7--5h7-------------|

                        x3                                  x3
G:|-----|-----------------|-----------------|-----------------|
D:|-----|-----------------|-----------------|-----------------|
A:|-5h7-|-----------5h7---|-----------------|-----------5h7---|
E:|-----|-5h7--5h7--------|-5h7--5h7--0-----|-5h7--5h7--------|

                       x7
G:|---|------------------|-----------------------|-----------------|-----|---------------|----------------------|
D:|---|------------------|-----------------------|-----------------|-----|---------------|----------------5-7-9-|
A:|---|------------------|-------------------5h7-|-5h7-------------|-5h7-|-----------5h7-|-----------5h7--------|
E:|-\-|-55---55-5---55-5-|-55---55-5---55-5------|-----------------|-----|-5h7--5h7------|-5h7--5h7-------------|

                        x3                                  x3                                 x3
G:|-----|-----------------|-----------------|-----------------|----------------|-----------------|
D:|-----|-----------------|-----------------|-----------------|----------------|-----------------|
A:|-5h7-|-----------5h7---|-----------------|-----------5h7---|----------------|-----------5h7---|
E:|-----|-5h7--5h7--------|-5h7--5h7--0-----|-5h7--5h7--------|-5h7--5h7--0----|-5h7--5h7--------|

                              x4                                  x2
G:|----------|------------------|-------------------|---------------|
D:|----------|------------------|-----------------7-|-------------7-|
A:|------5h7-|------------------|-------------------|---------------|
E:|-5h7------|-55---55-5---55-5-|-55---55-5---55----|--5--5--55-5---|

                           x7                           x7                             jusqu'à la fin
G:|--------|-----------------|---------|------------------|-----------|-----||---------------|-----------------||
D:|--------|-----------------|---------|------------------|-----------|-----||---------------|-----------------||
A:|----5h7-|-----------5h7---|-----5h7-|------------------|-B-R-E-A-K-|-5h7-||---------------|-----------5h7---||
E:|-\------|-5h7--5h7--------|-5h7-----|-55---55-5---55-5-|-----------|-----||-5h7--5h7--0---|-5h7--5h7--------||
    
    

0 Commentaires : réagissez !

1 2 3 4 5
0 notes
Aucun commentaire !

En Live

Manyak et Wario ont commenté le topic [Photos de vos basses] de lucas il y a 19 heures