ConnexionConnexionInscription
B E A D G
151 connectés Aller à Sweepyto Guitare

MC Janik - Madinina [ Artiste ]

Publié par le
02/06/2014
9462 vues
Moyen 1
http://www.youtube.com/watch?v=2vt21yGTpig
    
        

                                   Madinina                                     


Riff en boucle.
                                                                        MC Janik
Basse 4
T=85



      S T S T T S T T S T T E  E  Q    T    S T S T T S T T S T T E  E  Q    T  
G||-------------2------------------------|----------2-3---2--------------------|
D||*--3---3---5-----5-3---3--------------|--5---5-----------5---3--------------|
A||*------------------------5--5--5------|------------------------3--3--3------|
E||--------------------------------------|-------------------------------------|


  S T S T T S T T S T T E  E  Q    T    S T S T T S T T S T T E  E  E  E  T    
------------2------------------------|----------2-3---2----------------------||
--3---3---5-----5-3---3--------------|--5---5-----------5---3---------------*||
------------------------5--5--5------|------------------------3--3--0--3----*||
-------------------------------------|---------------------------------------||




Duration Legend
---------------
W - whole
H - half
Q - quarter
E - 8th
S - 16th
T - 32nd
X - 64th
. - note dotted
|-n-|  - n-tuplets


Tablature Legend
----------------
L - tied note
x - dead note
g - grace note
(n) - ghost note
> - accentuded note
NH - natural harmonic
AH - artificial harmonic
TH - tapped harmonic
SH - semi harmonic
PH - pitch harmonic
h - hammer on
p - pull off
b - bend
br - bendRelease
pb - preBend
pbr - preBendRelease
brb - bendReleaseBend
\n/ - tremolo bar dip
\n - tremolo bar dive
-/n - tremolo bar Release up
/n\ - tremolo bar inverted dip
/n - tremolo bar return
-\n - tremolo bar Release down
S - shift slide
s - legato slide
/ -  slide into from below or out of upwards
\ -  slide into from above or out of downwards
~ - vibrato
W - wide vibrato
tr - trill
TP - tremolo picking
T - tapping
S - slap
P - pop
< - fade in
^ - brush up
v - brush down

    
    

0 Commentaires : réagissez !

1 2 3 4 5
0 notes
Aucun commentaire !

En Live

Letserge vient tout juste de rejoindre la communauté Slappyto. Bienvenue ! il y a 1 heure
Minavios vient tout juste de rejoindre la communauté Slappyto. Bienvenue ! il y a 3 heures
Emeritus vient tout juste de rejoindre la communauté Slappyto. Bienvenue ! il y a 5 heures
Maobass31500 a voté pour le message de Baki13110 il y a 21 heures
Koches et gozo ont commenté le topic [FENDER Precision Bass 70'US Japan. ] de koches il y a 1 jour
Tomioux a commenté le topic [vds basse modulus quantum 4] de tomioux il y a 1 jour
Hipi Débwa a voté pour le message de bassman59 il y a 1 jour