ConnexionConnexionInscription
B E A D G
153 connectés Aller à Sweepyto Guitare

Shakira - Can't Remember To Forget You - Feat. Rihanna [ Artiste ]

Publié par le
24/02/2014
10564 vues
Débutant 4
http://www.youtube.com/watch?v=o3VMyHr1gIg
    
        

                                  Shakira
                         Can't Remenber To Forget You                           
                                Feat. Rihanna

T=138
Basse



     E   E   Q    E   E   Q       E   E   Q    E   E   Q     
G||----------------------------|----------------------------|
D||----------------------------|----------------------------|
A||-----(5)----------(5)-------|-----(7)----------(7)-------|
E||----------------------------|----------------------------|


  E   E   Q    E   E   Q                           E   E   Q    E   E   Q     
----------------------------|-------------------|----------------------------|
----------------------------|-------------------|----------------------------|
----------------------------|-------------------|-----(5)----------(5)-------|
-----(5)----------(5)-------|-------------------|----------------------------|


  E   E   Q    E   E   Q       E   E   Q    E   E   Q     
----------------------------|----------------------------|
----------------------------|----------------------------|
-----(7)----------(7)-------|----------------------------|
----------------------------|-----(5)----------(5)-------|


  E   E   Q    E   E    E    E       E    E   Q    E   E   Q     
---------------------------------|------------------------------|
---------------------------------|------------------------------|
-----(5)----------(5)--(5)--(4)--|--(4)---------------(5)-------|
---------------------------------|-------(7)--------------------|


  E   E   Q    E   E   Q       E   E   Q    E   E   Q     
----------------------------|----------------------------|
----------------------------|----------------------------|
-----(7)----------(7)-------|----------------------------|
----------------------------|-----(5)----------(5)-------|


  E   E   Q     E    E    E    E      E  E  E  E  Q    E  E   
-----------------------------------|-------------------------|
-----------------------------------|-------------------------|
-----(5)-------(5)--(5)--(4)--(4)--|-------------------------|
-----------------------------------|--7--7--5--7----------7--|


  E  E  E  E  E  E  E  E     E  E  E  E  Q    E  E     E  E  E  E  E  E  E  E   
--------------------------|-------------------------|--------------------------|
--------------------------|-------------------------|--------------------------|
--7--7--5--7-----5--4-----|-------------------------|--5--5--------4--4--------|
-----------------------7--|--5--5--3--5----------5--|-----------5--------7--5--|


  E  E  E  E  Q    E  E     E  E  E  E  Q    E  E         
-------------------------|-------------------------|-----|
-------------------------|-------------------------|-----|
-------------------------|--7--7--5--7-------------|-----|
--7--7--5--7----------7--|----------------------5--|-----|


    E  E  E  E  E  E  E  E     E  E  E  E  E  E  E  E   
|---------------------------|--------------------------|
|*--------------------------|--------------------------|
|*--------------------------|--------------------------|
|---7--7--7--7--7--7--7--7--|--5--5--5--5--5--5--5--5--|


  E  E  E  E  E  E  E  E     E  E  E  E  E  E  E  E   
--------------------------|--------------------------|
--------------------------|--5--5--5--5--4--4--4--4--|
--7--7--7--7--7--7--7--7--|--------------------------|
--------------------------|--------------------------|


  E  E  E  E  E  E  E  E     E  E  E  E  E  E  E  E   
--------------------------|--------------------------|
--------------------------|--------------------------|
--------------------------|--------------------------|
--7--7--7--7--7--7--7--7--|--5--5--5--5--5--5--5--5--|


  E  E  E  E  E  E  E  E     E  E  E  E  E  E  E  E           
--------------------------|---------------------------||-----|
--------------------------|--------------------------*||-----|
--------------------------|--5--5--5--5--4--4--4--4--*||-----|
--3--3--3--3--3--3--3--3--|---------------------------||-----|


  E  E  E  E  Q    E  E     E  E  E  E  E  E  E  E     E  E  E  E  Q    E  E   
-------------------------|--------------------------|-------------------------|
-------------------------|--------------------------|-------------------------|
-------------------------|--7--7--5--7-----5--4-----|-------------------------|
--7--7--5--7----------7--|-----------------------7--|--5--5--3--5----------5--|


  E  E  E  E  E  E  E  E     E  E  E  E  Q    E  E     E  E  E  E  E  E  E  E   
--------------------------|-------------------------|--------------------------|
--------------------------|-------------------------|--------------------------|
--5--5--------4--4--------|-------------------------|--7--7--5--7-----5--4-----|
-----------5--------7--5--|--7--7--5--7----------7--|-----------------------7--|


  E  E  E  E  Q    E  E     E  E  H        Q       E   E   Q    E   E   Q     
-------------------------|----------------------|----------------------------|
-------------------------|----------------------|----------------------------|
-------------------------|--5-------------------|-----(5)----------(5)-------|
--5--5--3--5----------5--|----------------------|----------------------------|


  E   E   Q    E   E   Q       E   E   Q    E   E   Q     
----------------------------|----------------------------|
----------------------------|----------------------------|
-----(7)----------(7)-------|----------------------------|
----------------------------|-----(5)----------(5)-------|


  E   E   Q     E    E    E    E      E  E  E  E  Q    E  E   
-----------------------------------|-------------------------|
-----------------------------------|-------------------------|
-----(5)-------(5)--(5)--(4)--(4)--|-------------------------|
-----------------------------------|--7--7--5--7----------7--|


  E  E  E  E  E  E  E  E     E  E  E  E  Q    E  E     E  E  E  E  E  E  E  E   
--------------------------|-------------------------|--------------------------|
--------------------------|-------------------------|--------------------------|
--7--7--5--7-----5--4-----|-------------------------|--5--5--------4--4--------|
-----------------------7--|--5--5--3--5----------5--|-----------5--------7--5--|


  E  E  E  E  Q    E  E     E  E  E  E  E  E  E  E     E  E  E  E  Q    E  E   
-------------------------|--------------------------|-------------------------|
-------------------------|--------------------------|-------------------------|
-------------------------|--7--7--5--7-----5--4-----|-------------------------|
--7--7--5--7----------7--|-----------------------7--|--5--5--3--5----------5--|


  E  E  E  E  E  E  E  E     E  E  E  E  Q    E  E     E  E  E  E  Q    E  E   
--------------------------|-------------------------|-------------------------|
--------------------------|-------------------------|-------------------------|
--5--5--------4--4--------|-------------------------|--7--7--5--7-------------|
-----------5--------7--5--|--7--7--5--7----------7--|----------------------5--|


                E  E  E  E  E  E  E  E     E  E  E  E  E  E  E  E   
-----|-----||---------------------------|--------------------------|
-----|-----||*--------------------------|--------------------------|
-----|-----||*--------------------------|--------------------------|
-----|-----||---7--7--7--7--7--7--7--7--|--5--5--5--5--5--5--5--5--|


  E  E  E  E  E  E  E  E     E  E  E  E  E  E  E  E   
--------------------------|--------------------------|
--------------------------|--5--5--5--5--4--4--4--4--|
--7--7--7--7--7--7--7--7--|--------------------------|
--------------------------|--------------------------|


  E  E  E  E  E  E  E  E     E  E  E  E  E  E  E  E   
--------------------------|--------------------------|
--------------------------|--------------------------|
--------------------------|--------------------------|
--7--7--7--7--7--7--7--7--|--5--5--5--5--5--5--5--5--|


  E  E  E  E  E  E  E  E     E  E  E  E  E  E  E  E           
--------------------------|---------------------------||-----|
--------------------------|--------------------------*||-----|
--------------------------|--5--5--5--5--4--4--4--4--*||-----|
--3--3--3--3--3--3--3--3--|---------------------------||-----|


  E  E  E  E  Q    E  E     E  E  E  E  E  E  E  E     E  E  E  E  Q    E  E   
-------------------------|--------------------------|-------------------------|
-------------------------|--------------------------|-------------------------|
-------------------------|--7--7--5--7-----5--4-----|-------------------------|
--7--7--5--7----------7--|-----------------------7--|--5--5--3--5----------5--|


  E  E  E  E  E  E  E  E     E  E  E  E  Q    E  E     E  E  E  E  E  E  E  E   
--------------------------|-------------------------|--------------------------|
--------------------------|-------------------------|--------------------------|
--5--5--------4--4--------|-------------------------|--7--7--5--7-----5--4-----|
-----------5--------7--5--|--7--7--5--7----------7--|-----------------------7--|


  E  E  E  E  Q    E  E     E  E  Q    H           E  E  E  E  Q    E  E   
-------------------------|----------------------|-------------------------|
-------------------------|--0-------------------|-------------------------|
-------------------------|----------------------|-------------------------|
--5--5--3--5----------5--|----------------------|--7--7--5--7----------7--|


  E  E  E  E  E  E  E  E     E  E  E  E  Q    E  E     E  E  E  E  E  E  E  E   
--------------------------|-------------------------|--------------------------|
--------------------------|-------------------------|--------------------------|
--7--7--5--7-----5--4-----|-------------------------|--5--5--------4--4--------|
-----------------------7--|--5--5--3--5----------5--|-----------5--------7--5--|


  E  E  E  E  Q    E  E     E  E  E  E  E  E  E  E     E  E  E  E  Q    E  E   
-------------------------|--------------------------|-------------------------|
-------------------------|--------------------------|-------------------------|
-------------------------|--7--7--5--7-----5--4-----|-------------------------|
--7--7--5--7----------7--|-----------------------7--|--5--5--3--5----------5--|


  E  E  H        Q         E  E  E  E  E  E  E  E     E  E  E  E  E  E  E  E   
----------------------||---------------------------|--------------------------|
--0-------------------||*--------------------------|--------------------------|
----------------------||*--------------------------|--------------------------|
----------------------||---7--7--7--7--7--7--7--7--|--5--5--5--5--5--5--5--5--|


  E  E  E  E  E  E  E  E     E  E  E  E  E  E  E  E   
--------------------------|--------------------------|
--------------------------|--5--5--5--5--4--4--4--4--|
--7--7--7--7--7--7--7--7--|--------------------------|
--------------------------|--------------------------|


  E  E  E  E  E  E  E  E     E  E  E  E  E  E  E  E   
--------------------------|--------------------------|
--------------------------|--------------------------|
--------------------------|--------------------------|
--7--7--7--7--7--7--7--7--|--5--5--5--5--5--5--5--5--|


  E  E  E  E  E  E  E  E     E  E  E  E  E  E  E  E     
--------------------------|---------------------------||
--------------------------|--------------------------*||
--------------------------|--5--5--5--5--4--4--4--4--*||
--3--3--3--3--3--3--3--3--|---------------------------||


  E  E  E  E  E  E  E  E     E  E  E  E  E  E  E  E   
--------------------------|--------------------------|
--------------------------|--------------------------|
--------------------------|--------------------------|
--7--7--7--7--7--7--7--7--|--5--5--5--5--5--5--5--5--|


  E  E  E  E  E  E  E  E     E  E  E  E  E  E  E  E   
--------------------------|--------------------------|
--------------------------|--------------------------|
--------------------------|--5--5--5--5--4--4--4--4--|
--3--3--3--3--3--3--3--3--|--------------------------|


  E  E  E  E  E  E  E  E     E  E  E  E  E  E  E  E   
--------------------------|--------------------------|
--------------------------|--------------------------|
--------------------------|--------------------------|
--7--7--7--7--7--7--7--7--|--5--5--5--5--5--5--5--5--|


  E  E  E  E  E  E  E  E                
--------------------------|-----|-----||
--------------------------|-----|-----||
--------------------------|-----|-----||
--3--3--3--3--3--3--3--3--|-----|-----||




Duration Legend
---------------
W - whole
H - half
Q - quarter
E - 8th
S - 16th
T - 32nd
X - 64th
. - note dotted
|-n-|  - n-tuplets


Tablature Legend
----------------
L - tied note
x - dead note
g - grace note
(n) - ghost note
> - accentuded note
NH - natural harmonic
AH - artificial harmonic
TH - tapped harmonic
SH - semi harmonic
PH - pitch harmonic
h - hammer on
p - pull off
b - bend
br - bendRelease
pb - preBend
pbr - preBendRelease
brb - bendReleaseBend
\n/ - tremolo bar dip
\n - tremolo bar dive
-/n - tremolo bar Release up
/n\ - tremolo bar inverted dip
/n - tremolo bar return
-\n - tremolo bar Release down
S - shift slide
s - legato slide
/ -  slide into from below or out of upwards
\ -  slide into from above or out of downwards
~ - vibrato
W - wide vibrato
tr - trill
TP - tremolo picking
T - tapping
S - slap
P - pop
< - fade in
^ - brush up
v - brush down

    
    

0 Commentaires : réagissez !

1 2 3 4 5
1 note
Notes pour Can't Remember To Forget You - Feat. Rihanna Basse Tab - (Shakira) | Slappyto : 5/5 sur 1 note
Aucun commentaire !

En Live

Chirac, popolito, mescalito et grobass ont commenté le topic [La Ligue des Célibasseux 3] de Aeros'Miss il y a 2 heures
Chirac et popolito ont commenté le topic [Enlarge your genderfluidity] de Chirac il y a 2 heures
Chirac, popolito, mescalito et grobass ont commenté le topic [Le Topic du Freepost 7] de Vikie il y a 2 heures
Tazzzbass a commenté le topic [Vends Warwick Thumb Nt5 1600€] de tazzzbass il y a 18 heures
ClemCim vient tout juste de rejoindre la communauté Slappyto. Bienvenue ! il y a 1 jour
TiTi Bass a voté pour le message de ypikai il y a 1 jour
TiTi Bass vient tout juste de rejoindre la communauté Slappyto. Bienvenue ! il y a 1 jour
Valaos vient tout juste de rejoindre la communauté Slappyto. Bienvenue ! il y a 1 jour
Popolito a commenté le topic [Mesa Boogie M-Pulse 600] de popolito il y a 2 jours