ConnexionConnexionInscription
B E A D G
135 connectés Aller à Sweepyto Guitare

Luc Guillaume - For You [ Artiste ]

Publié par le
21/04/2014
9302 vues
Débutant 1
http://www.youtube.com/watch?v=Cu-5KV0Av4k
    
        

                                    For You                                     


                                                                   Luc Guillaume
Basse
T=86



     H        Q    E  E       S S S S E  E  S E  S E  S S  
G||----------------------||-------------------------------|
D||----------------------||*------------------------------|
A||----------------------||-------------------------------|
E||----------------1-----||*----1-3-4---------1-----------|
B||----------------------||-----------2-----x----x-4--x-x-|


  S S E  E  E  E  E  E  E     S S S S E  E  S E  S E  S S  
---------------------------|------------------------------|
---------------------------|------------------------------|
---------------------------|------------------------------|
------6--4-----------------|----1-3-4---------1-----------|
--x-x----------4--x--6-----|----------2-----x----x-4--x-x-|


  S S E  E  E  E  E  E  E     S S S S E  E  S E  S E  S S  
---------------------------|------------------------------|
---------------------------|------------------------------|
---------------3-----------|------------------------------|
------6--4-----------------|----1-3-4---------1-----------|
--x-x-------------x--6-----|----------2-----x----x-4--x-x-|


  S S E  E  E  E  E  Q        S S S S E  E  S E  S E  S S  
---------------------------|------------------------------|
---------------------------|------------------------------|
---------------3--6--8\----|------------------------------|
------6--4-----------------|----1-3-4---------1-----------|
--x-x----------------------|----------2-----x----x-4--x-x-|


  S S E  Q      Q     E  E        S S S S E  E  S E  S E  S S  
-----------------------------||-------------------------------|
----------------------------*||*------------------------------|
-----------------------------||-------------------------------|
------6--4S----11S----1-----*||*----1-3-4---------1-----------|
--x-x------------------------||-----------2-----x----x-4--x-x-|


  S S E  E  E  E  E  E   E     S S S S E  E  S E  S E  S S  
----------------------------|------------------------------|
----------------------------|------------------------------|
---------------3------------|------------------------------|
------6--4--------6---------|----1-3-4---------1-----------|
--x-x----------------6\-----|----------2-----x----x-4--x-x-|


  S S S S S S S S E  E  E   E     S S S S E  E  S E  S E  S S  
-------------------------------|------------------------------|
-------------------------------|------------------------------|
-------------------------------|------------------------------|
------6---4-4---x-3--4---------|----1-3-4---------1-----------|
--x-x-------------------6\-----|----------2-----x----x-4--x-x-|


  S S E  E  E  E  E  Q        S S S S E  E  S E  S E  S S  
---------------------------|------------------------------|
---------------------------|------------------------------|
---------------3--6--8\----|------------------------------|
------6--4-----------------|----1-3-4---------1-----------|
--x-x----------------------|----------2-----x----x-4--x-x-|


1__________                    2___________
  S S E  Q      Q     E  E       S S E  E  E   E  E   E  E   
-----------------------------||-----------------------------|
----------------------------*||-----------------------------|
-----------------------------||------1----------------------|
------6--4S----11S----1-----*||---------4--4S--8--6S--1-----|
--x-x------------------------||--x-x------------------------|


  E  E  E  E  E  E  E  E     E  E  E  E  E  E  E  E   
--------------------------|--------------------------|
--------------------------|--------------------------|
--3--x--4-----------------|--1--x--------------------|
--------------4--x--------|--------4-----------1-----|
--------------------4-----|--------------4--x--------|


  E  E  E  E  E  E  E  E     E  E  E  E  E  E  E  E   
--------------------------|--------------------------|
--------------------------|--------------------------|
--3--x--4-----------------|--1--x--------------------|
--------------4--x--------|--------4-----3--4--1-----|
--------------------4-----|--------------------------|


  E  E  E  E  E  E  E  E     E  E  E  E  E  E  E  E   
--------------------------|--------------------------|
--------------3--x--1-----|--------------------------|
--3--x--4-----------------|--1--x--------------------|
--------------------------|--------4-----------1-----|
--------------------------|--------------4--x--------|


  E  E  E  E  E  E  E  E     E  E  E  E  E  E  E  E   
--------------------------|--------------------------|
--------------------------|--------------------------|
--3--x--4-----------------|--1--x--------------------|
--------------4--x--------|--------4-----3--4--1-----|
--------------------4-----|--------------------------|


  E  E  E  E  E  E  E  E     E  E  E  E  E  E  E  E   
--------------------------|--------------------------|
--------------3--x--1-----|-----1--------------------|
--3--x--4-----------------|--1-----------------------|
--------------------------|--------4-----3--4--1-----|
--------------------------|--------------------------|


  E  E  E  E  E  E  E  E     E  E  E  E  E  E  E  E   
--------------------------|--------------------------|
--------------------------|--------------------------|
--3--x--4-----------------|--1--x--------------------|
--------------4--x--------|--------4--------4--1-----|
--------------------4-----|--------------4-----------|


  E  E  Q     E  E  E  E     E  E  E  E  E  E  E  E   
--------------------------|--------------------------|
--------------------------|--------------------------|
--3--x--4\----------------|--1--x--------------------|
-----------------1--------|--------4-----3--4--1-----|
--------------------4-----|--------------------------|


  E  E  E  E  E  E  S S S S    E  E  E  S S E  E  E  E   
----------------------------|---------------------------|
--------------3--x--1-1-----|-----1---------------------|
--3--x--4-----------------x-|--1------------------------|
----------------------------|--------4----x-3--4--1-----|
----------------------------|---------------------------|


  E  E  E  E  E  E  E  E     E  E  E  E  E  E  E  E   
--------------------------|--------------------------|
--------------------------|-----------------1--3-----|
--3--x--4-----------------|--1--x--------3-----------|
--------------4--x--------|--------4-----------------|
--------------------4-----|--------------------------|


  E  E  E  E  E  E  E  E     E  E  E  E  E  E  E  E   
--------------------------|--------------------------|
--------------------------|--------------------------|
--3--x--4-----------------|--1--x--------------------|
--------------4--x--------|--------4--------x--1-----|
--------------------4-----|--------------4-----------|


  E  E  E  E  E  E  S S S S    E  E  E  S S E  E  E  E   
----------------------------|---------------------------|
--------------3--x--1-1-----|-----1---------------------|
--3--x--4-----------------x-|--1------------------------|
----------------------------|--------4----x-3--4--1-----|
----------------------------|---------------------------|


  E  E  E  E  E  E  E  E     E  E  S S S S E  E  E  E   
--------------------------|----------------------------|
--------------------------|----------------------------|
--3--x--4-----------------|--1--x----------------------|
-----------------1--------|--------4-4---4-3--4--1-----|
--------------------4-----|----------------------------|


  E  E  E  E  E  E  E  E     E  E  E  E  E  E  E  E   
--------------------------|--------------------------|
--------------------------|--------------------------|
--3--x--4-----------------|--1--x--------------------|
--------------4--1--------|--------4-----3--x--1-----|
--------------------4-----|--------------------------|


  E  E  E  E  E  E  E  E     E  E  S S S S E  E  E  E   
--------------------------|----------------------------|
--------------------------|----------------------------|
--3--x--4-----------------|--1--x----------------------|
--------------4--1--------|--------4-4---4-3--4--1-----|
--------------------4-----|----------------------------|


  E  E  E  E  S S S S S S S S    E  E  E  E  E  E  E  E   
------------------------------|--------------------------|
--------------3-3-3---3-3-1---|-----1--------------------|
--3--x--4---------------------|--1-----------------------|
------------------------------|--------4-----3--4--1-----|
------------------------------|--------------------------|


  E  E  E  E  E  E  E  E     E  E  E  E  E  E  E  E   
--------------------------|--------------------------|
--------------------------|--------------------------|
--3--x--4-----------------|--1--x--------------------|
--------------4--1--------|--------4--------x--1-----|
--------------------4-----|--------------4-----------|


  E  E  E  E  E  E  E  E     E  E  E  E  E  E  E  E   
--------------------------|--------------------------|
--------------3--x--1-----|-----1--------------------|
--3--x--4-----------------|--1-----------------------|
--------------------------|--------4-----3--4--1-----|
--------------------------|--------------------------|


  E  E  E  E  E  E  E  E     E  E  E  E  E  E  E  E   
--------------------------|--------------------------|
--------------------------|--------------------------|
--3--x--4-----------------|--1--x--------------------|
--------------4--1--------|--------4-----3--4--1-----|
--------------------4-----|--------------------------|


  E  E  E  E  E  E  E  E     E  E  E  E  E  E  E  E   
--------------------------|--------------------------|
--------------------------|--------------------------|
--3--x--4-----------------|--1--x--------------------|
--------------4--1--------|--------4--------x--1-----|
--------------------4-----|--------------4-----------|


  E  E  E  E  E  E  E  E     E  E  E  E  E  E  E  E   
--------------------------|--------------------------|
--------------------------|--------------------------|
--3--x--4-----------------|--1--x--------------------|
--------------4--1--------|--------4-----3--x--1-----|
--------------------4-----|--------------------------|


  E  E  E  E  E  E  E  E     E  E  E  E  E  E  E  E   
--------------------------|--------------------------|
--------------3--x--1-----|--------------------------|
--3--x--4-----------------|--1--x--------------------|
--------------------------|--------4--------x--1-----|
--------------------------|--------------4-----------|


  E  E  E  E  E  E  E  E     E  E  E  E  E  E  E  E   
--------------------------|--------------------------|
--------------------------|--------------------------|
--3--x--4-----------------|--1--x--------------------|
--------------1--x--------|--------4-----3--x--1-----|
--------------------4-----|--------------------------|


  E  E  E  E  E  E  E  E     E  E  E  E  E  E  E  E   
--------------------------|--------------------------|
--------------------------|--------------------------|
--3--x--4-----------------|--1--x--------------------|
--------------1--x--------|--------4--------x--1-----|
--------------------4-----|--------------4-----------|


  E  E  E  E  E  E  E  E     E  E  E  E  E  E  E  E   
--------------------------|--------------------------|
--------------------------|--------------------------|
--3--x--4-----------------|--1--x--------------------|
--------------1--x--------|--------4-----3--x--1-----|
--------------------4-----|--------------------------|


  E  E  E  E  E  E  E  E     E  E  E  E  E  E  E  E   
--------------------------|--------------------------|
--------------3--x--1-----|--------------------3-----|
--3--x--4-----------------|--1--x--------------------|
--------------------------|--------4--------x--------|
--------------------------|--------------4-----------|


  E  E  E  E  E  E  E  E     E  E  E  E  E  E  E  E   
--------------------------|--------------------------|
--------------------------|--------------------------|
--3--x--4-----------------|--1--x--------------------|
--------------4--x--------|--------4--------1--1-----|
--------------------4-----|--------------4-----------|


  E  E  E  E  E  E  E  E     E  E  E  E  E  E  E  E   
--------------------------|--------------------------|
--------------------------|--------------------------|
--3--x--4-----------------|--1--x--------------------|
--------------4--x--------|--------4--------x--1-----|
--------------------4-----|--------------4-----------|


  E  E  E  E  E  E  E  E     E  E  E  E  E  E  E  E   
--------------------------|--------------------------|
--------------------------|--------------------------|
--3--x--4-----------------|--1--x--------------------|
--------------4--x--------|--------4-----3--x--1-----|
--------------------4-----|--------------------------|


  E  E  E  E  E  E  E  E     E  E  E  E  E  E  E  E    
--------------------------|--------------------------||...
--------------3--x--1-----|--------------------------||...
--3--x--4-----------------|--1--x--------------------||...
--------------------------|--------4--------x--1-----||...
--------------------------|--------------4-----------||...




Duration Legend
---------------
W - whole
H - half
Q - quarter
E - 8th
S - 16th
T - 32nd
X - 64th
. - note dotted
|-n-|  - n-tuplets


Tablature Legend
----------------
L - tied note
x - dead note
g - grace note
(n) - ghost note
> - accentuded note
NH - natural harmonic
AH - artificial harmonic
TH - tapped harmonic
SH - semi harmonic
PH - pitch harmonic
h - hammer on
p - pull off
b - bend
br - bendRelease
pb - preBend
pbr - preBendRelease
brb - bendReleaseBend
\n/ - tremolo bar dip
\n - tremolo bar dive
-/n - tremolo bar Release up
/n\ - tremolo bar inverted dip
/n - tremolo bar return
-\n - tremolo bar Release down
S - shift slide
s - legato slide
/ -  slide into from below or out of upwards
\ -  slide into from above or out of downwards
~ - vibrato
W - wide vibrato
tr - trill
TP - tremolo picking
T - tapping
S - slap
P - pop
< - fade in
^ - brush up
v - brush down

    
    

0 Commentaires : réagissez !

1 2 3 4 5
0 notes
Aucun commentaire !

En Live

Chirac, popolito, mescalito et grobass ont commenté le topic [La Ligue des Célibasseux 3] de Aeros'Miss il y a 2 heures
Chirac et popolito ont commenté le topic [Enlarge your genderfluidity] de Chirac il y a 2 heures
Chirac, popolito, mescalito et grobass ont commenté le topic [Le Topic du Freepost 7] de Vikie il y a 2 heures
Tazzzbass a commenté le topic [Vends Warwick Thumb Nt5 1600€] de tazzzbass il y a 18 heures
ClemCim vient tout juste de rejoindre la communauté Slappyto. Bienvenue ! il y a 1 jour
TiTi Bass a voté pour le message de ypikai il y a 1 jour
TiTi Bass vient tout juste de rejoindre la communauté Slappyto. Bienvenue ! il y a 1 jour
Valaos vient tout juste de rejoindre la communauté Slappyto. Bienvenue ! il y a 1 jour
Popolito a commenté le topic [Mesa Boogie M-Pulse 600] de popolito il y a 2 jours