ConnexionConnexionInscription
B E A D G
150 connectés Aller à Sweepyto Guitare

Terry Callier - You Goin' Miss Your Candyman [ Artiste ]

Publié par le
13/09/2014
15711 vues
Moyen 2
http://www.youtube.com/watch?v=HY2VfzBWKXM
    
        

G|-------------------10-----------------
D|----12----12--10-12----10--12---------
A|--------12--12---------------10\8-----
E|-10-------------------------------10--

G|-----------------------------------
D|--10-10-9-12------------10-10-9-12-
A|-----------------12----------------
E|-X-----------10----10--X-----------


    
    

0 Commentaires : réagissez !

1 2 3 4 5
2 notes
Notes pour You Goin' Miss Your Candyman Basse Tab - (Terry Callier) | Slappyto : 5/5 sur 2 notes
Aucun commentaire !

En Live

Manyak et Wario ont commenté le topic [Photos de vos basses] de lucas il y a 2 heures