ConnexionConnexionInscription
B E A D G
105 connectés Aller à Sweepyto Guitare

Amy Winehouse - You know I'm no good [ Artiste ]

Publié par le
07/07/2014
18298 vues
Débutant 2
    
        

You know I'm no good by Amy Winehouse


Après deux mesures :


Intro :
|------------------------|------------------------|------------------------|-------------------------|
|------------------------|------------------------|------------------------|-------------------------|
|--5-------5-------3--4--|--5-------5-------3--4--|--5-------5-------3--4--|--5-------5---5----3--4--|
|------------5--5--------|------------5--5--------|------------5--5--------|------------5---5--------|


Couplet 1 :
|------------------------|-----------------------------|----------------------------|------------------------|
|------------------3--4--|--5-------5----------5---6---|--7-------7----------7------|------------------------|
|--5-------5-------------|-------------5---5-----------|-------------7---7-------4--|--5-------5-------3--4--|
|------------5--5--------|-----------------------------|----------------------------|------------5--5--------|

|------------------------|-----------------------------|----------------------------|------------------------|
|------------------3--4--|--5-------5----------5---6---|--7-------7----------7------|------------------------|
|--5-------5-------------|-------------5---5-----------|-------------7---7-------4--|--5-------5-------5-----|
|------------5--5--------|-----------------------------|----------------------------|------------5--5-----5--|


Pont 1 :
|--------------------------|--------------------------|--------------------------|--------------------------|
|--------------------------|--------------------------|--------------------------|--------------------------|
|--------------------------|--------------------------|--7-----7-----7-----7-----|--7-----7-----7-----7-----|
|--3---6-6--3---6-6--3---6-|------6-6--3---6-6--3---6-|-----7-----7-----7-----7--|-----7-----7-----7-----7--|

|--------------------------|--------------------------|--------------------------|--------------------------|
|--------------------------|--------------------------|--------------------------|--7-----7-----7-----7-----|
|--8-----8-----8-----8-----|--8-----8-----8-----8-----|--7-----7-----7-----7-----|--------------------------|
|-----8-----8-----8-----8--|-----8-----8-----8-----8--|-----7-----7-----7-----7--|-----5-----5-----5-----5--|



Ref 1 :
|------------------------|----------------------------|------------------------|------------------------------|
|----------------5---6---|--7------7----------7-------|------------------------|-------7----7----------7------|
|--5-----5---------------|------------7---7-------5---|--7-------7-------7-----|---------------5---5-------4--|
|------------5--5--------|----------------------------|------------7--7-----7--|----7-------------------------|

|------------------------|----------------------------|------------------------|------------------------------|
|----------------5---6---|--7------7----------7-------|------------------------|-------7----7----------7------|
|--5-----5---------------|------------7---7-------5---|--7-------7-------7-----|---------------5---5-------4--|
|------------5--5--------|----------------------------|------------7--7-----7--|----7-------------------------|



Break (deux mesures)



Couplet 2 :
|------------------------|-----------------------------|----------------------------|----7--7-7-7-7-7-7-7-----|
|------------------3--4--|--5-------5----------5---6---|--7-------7----------7------|---------------------7-0-|
|--5-------5-------------|-------------5---5-----------|-------------7---7-------4--|--5----------------------|
|------------5--5--------|-----------------------------|----------------------------|-------------------------|

|------------------------|-----------------------------|----------------------------|-------------------------|
|------------------3--4--|--5-------5----------5---6---|--7-------7----------7------|-------------------------|
|--5-------5-------------|-------------5---5-----------|-------------7---7-------4--|--5--------5-------5-----|
|------------5--5--------|-----------------------------|----------------------------|-------------5--5-----5--|



Pont 2 :
|--------------------------|--------------------------|--------------------------|--------------------------|
|--------------------------|--------------------------|--------------------------|--------------------------|
|--------------------------|--------------------------|--7-----7-----7-----7-----|--7-----7-----7-----7-----|
|--3---6-6--3---6-6--3---6-|------6-6--3---6-6--3---6-|-----7-----7-----7-----7--|-----7-----7-----7-----7--|

|--------------------------|--------------------------|--------------------------|--------------------------|
|--------------------------|--------------------------|--------------------------|--7-----7-----7-----7-----|
|--8-----8-----8-----8-----|--8-----8-----8-----8-----|--7-----7-----7-----7-----|--------------------------|
|-----8-----8-----8-----8--|-----8-----8-----8-----8--|-----7-----7-----7-----7--|-----5-----5-----5-----5--|


Ref 2 :
|------------------------|----------------------------|------------------------|------------------------------|
|----------------5---6---|--7------7----------7-------|------------------------|-------7----7----------7------|
|--5-----5---------------|------------7---7-------5---|--7-------7-------7-----|---------------5---5-------4--|
|------------5--5--------|----------------------------|------------7--7-----7--|----7-------------------------|

|------------------------|----------------------------|------------------------|------------------------------|
|----------------5---6---|--7------7----------7-------|------------------------|-------7----7----------7------|
|--5-----5---------------|------------7---7-------5---|--7-------7-------7-----|---------------5---5-------4--|
|------------5--5--------|----------------------------|------------7--7-----7--|----7-------------------------|


Break :
|---------------------------|-------------------------|-------------------------|---------------------------|
|---------------------------|-------------------------|-------------------------|-----------7---7---7---7---|
|---------------------------|-------------------------|-------------------------|---------------------------|
|---------------------------|-------------------------|-------------------------|---------5---5---5---5---5-|


Interlude (solo saxophone) :
|------------------------|----------------------------|------------------------|---------------------------------|
|----------------5---6---|--7------7----------7-------|------------------------|-------5--7---5--7---5--7---5--7-|
|--5-----5---------------|------------7---7-------5---|--7-------7-------7-----|---------------------------------|
|------------5--5--------|----------------------------|------------7--7-----7--|--5------------------------------|

|------------------------|----------------------------|------------------------|-----------7--7-7-7-7-7-7-7------|
|------------------------|----------------------------|------------------------|----------------------------7-0--|
|------------------------|----------------------------|---------------------7--|--5------------------------------|
|------------------------|----------------------------|------------------------|---------------------------------|


Couplet 3 :
|------------------------|-----------------------------|----------------------------|------------------------|
|------------------3--4--|--5-------5----------5---6---|--7-------7----------7------|------------------------|
|--5-------5-------------|-------------5---5-----------|-------------7---7-------4--|--5-------5-------3--4--|
|------------5--5--------|-----------------------------|----------------------------|------------5--5--------|


Pont 3:
|--------------------------|--------------------------|--------------------------|--------------------------|
|--------------------------|--------------------------|--------------------------|--------------------------|
|--------------------------|--------------------------|--7-----7-----7-----7-----|--7-----7-----7-----7-----|
|--3---6-6--3---6-6--3---6-|------6-6--3---6-6--3---6-|-----7-----7-----7-----7--|-----7-----7-----7-----7--|

|--------------------------|--------------------------|--------------------------|--------------------------|
|--------------------------|--------------------------|--------------------------|--------------------------|
|--8-----8-----8-----8-----|--8-----8-----8-----8-----|--7-----7-----7-----7-----|--------------------------|
|-----8-----8-----8-----8--|-----8-----8-----8-----8--|-----7-----7-----7-----7--|--------------------------|


Ref 3 et 4 :
|------------------------|----------------------------|------------------------|------------------------------|
|----------------5---6---|--7------7----------7-------|------------------------|-------7----7----------7------|
|--5-----5---------------|------------7---7-------5---|--7-------7-------7-----|---------------5---5-------4--|
|------------5--5--------|----------------------------|------------7--7-----7--|----7-------------------------|

|------------------------|----------------------------|------------------------|------------------------------|
|----------------5---6---|--7------7----------7-------|------------------------|-------7----7----------7------|
|--5-----5---------------|------------7---7-------5---|--7-------7-------7-----|---------------5---5-------4--|
|------------5--5--------|----------------------------|------------7--7-----7--|----7-------------------------|

|------------------------|----------------------------|------------------------|------------------------------|
|----------------5---6---|--7------7----------7-------|------------------------|-------7----7----------7------|
|--5-----5---------------|------------7---7-------5---|--7-------7-------7-----|---------------5---5-------4--|
|------------5--5--------|----------------------------|------------7--7-----7--|----7-------------------------|

|------------------------|----------------------------|------------------------|------------------------------|
|----------------5---6---|--7------7----------7-------|------------------------|-------7----7----------7------|
|--5-----5---------------|------------7---7-------5---|--7-------7-------7-----|---------------5---5-------4--|
|------------5--5--------|----------------------------|------------7--7-----7--|----7-------------------------|

Outro :
|------------------------|----------------------------|------------------------|------------------------------|
|----------------5---6---|--7------7----------7-------|------------------------|-------7----7----------7------|
|--5-----5---------------|------------7---7-------5---|--7-------7-------7-----|---------------5---5-------4--|
|------------5--5--------|----------------------------|------------7--7-----7--|----7-------------------------|

|------------------------|----------------------------|------------------------|------------------------------|
|----------------5---6---|--7------7----------7-------|------------------------|-------7----7----------7------|
|--5-----5---------------|------------7---7-------5---|--7-------7-------7-----|---------------5---5-------4--|
|------------5--5--------|----------------------------|------------7--7-----7--|----7-------------------------|

|------------------------|----------------------------|------------------------|------------------------------|
|----------------5---6---|--7------7----------7-------|------------------------|-------7----7----------7------|
|--5-----5---------------|------------7---7-------5---|--7-------7-------7-----|---------------5---5-------4--|
|------------5--5--------|----------------------------|------------7--7-----7--|----7-------------------------|
    
    

0 Commentaires : réagissez !

1 2 3 4 5
0 notes
Aucun commentaire !

En Live

JR BASS, escaliyo et grobass ont commenté le topic [HELP CONFIG AMPLI !] de JR BASS il y a 9 heures
Fred18 vient tout juste de rejoindre la communauté Slappyto. Bienvenue ! il y a 10 heures
Escaliyo a voté pour le message de grobass il y a 13 heures
Escaliyo a commenté le topic [Basse pour débuter ] de Patmustang il y a 20 heures
Ray a voté pour le message de grobass il y a 1 jour
Jerem65 et grobass ont commenté le topic [Et vous, vous écoutez quoi maintenant ?] de nono il y a 1 jour