ConnexionConnexionInscription
B E A D G
105 connectés Aller à Sweepyto Guitare

AC DC - Highway to hell [ Artiste ]

Publié par le
10/11/2015
23316 vues
Débutant 1
    
        

Bonjour :D
J'viens de m'inscrire et je viens faire une des tabs les plus connnus, 
c'est en général le premier morceau que vous apprenez je crois ^^
Personnellement je ne l'ai pas appris de suite mais pour débuter c'est un excellent morceau !
C'est ma première tab, merci d'avance aux commentaire constructifs qui me diront les erreurs :D


Rift principale : *il revient pendant le semi-solo de la guitare)
G|--------------0--|
D|----------------4|
A|--0-0-0-0-0-0----|
E|-----------------|

*Après les 6 rift de la guitare* (environ 1:28 sur la vidéo)
G|---------------------------------------0-|-----------0-|-----------0-|-------------|
D|----2-2-2-2-2-2-2-2-2-2-2-2-------------4|------------4|------------4|-------------|
A|----------------------------0-0-0-0-0-0--|0-0-0-0-0-0--|0-0-0-0-0-0--|0-0-0-0-0----|
E|-----------------------------------------|-------------|-------------|-------------|
(laissez bien sonner la dernière note à vide)


Je vous ais mit l'essentiel pour le morceau.
Grattez bien :D

la musique : https://www.youtube.com/watch?v=gEPmA3USJdI
    
    

0 Commentaires : réagissez !

1 2 3 4 5
0 notes
Aucun commentaire !

En Live

JR BASS, escaliyo et grobass ont commenté le topic [HELP CONFIG AMPLI !] de JR BASS il y a 9 heures
Fred18 vient tout juste de rejoindre la communauté Slappyto. Bienvenue ! il y a 10 heures
Escaliyo a voté pour le message de grobass il y a 13 heures
Escaliyo a commenté le topic [Basse pour débuter ] de Patmustang il y a 20 heures
Ray a voté pour le message de grobass il y a 1 jour
Jerem65 et grobass ont commenté le topic [Et vous, vous écoutez quoi maintenant ?] de nono il y a 1 jour