ConnexionConnexionInscription
B E A D G
166 connectés Aller à Sweepyto Guitare

Mark Ronson - Mark Ronson - Uptown Funk [ Artiste ]

Publié par le
13/02/2015
15990 vues
Débutant 1
http://www.deezer.com/album/9411436
    
        

La ligne de basse commence à 0:33 ( sauf si vous voulez jouer la ligne des choeurs ) :


G:-------------------------------------:
D:---------------3h5-3-----3h5-3-------:
A:--5 slide---5---------5---------3----: x4
E:-------------------------------------:


Ensuite vous avez une descente chromatique juste avant le refrain à 0!58.
Attention c'est joué en contre-temps :


G:---------------------------------------------------:
D:---------------------------------------------------:
A:--5--6--7--8--9--10--11--12--13--14--15-16-17slide-:
E:---------------------------------------------------:

Refrain 1:07  :

G:---------------------------------------:
D:---------------3h5-3-----3h5-3---------: x3
A:--5 slide---5---------5---------3------:
E:---------------------------------------:

G:------------------------------------slide777777---slide777777----slide777777-:
D:---------------3h5-3-----3h5-------------------------------------------------:
A:--5 slide---5---------5------55555-------------------------------------------: 
E:-----------------------------------------------------------------------------:


Couplet 1:48 :

G:---------------:
D:---------------:
A:---------------:
E:----5-slide-10-:

G:---------------------------------------:
D:---------------3h5-3-----3h5-3---------:
A:--5 slide---5---------5---------3------: x4
E:---------------------------------------:


Pré-refrain 2:13 :


G:---------------------------------------------------:
D:---------------------------------------------------:
A:--5--6--7--8--9--10--11--12--13--14--15-16-17slide-:
E:---------------------------------------------------:

Refrain : 


G:---------------------------------------:
D:---------------3h5-3-----3h5-3---------: x3
A:--5 slide---5---------5---------3------:
E:---------------------------------------:


G:------------------------------------slide777777---slide777777----slide777777-:
D:---------------3h5-3-----3h5-------------------------------------------------:
A:--5 slide---5---------5------55555-------------------------------------------: 
E:-----------------------------------------------------------------------------:


G:---------------:
D:---------------:
A:--slide 5------: x4
E:---------------:


Pont : 

G:---------------------------------------:
D:----------------3h5-3-----3h5-3--------:
A:--5slide----5----------5---------3-----: x5
E:---------------------------------------:

G:---------------------------------------:
D:----------------3h5-3------------------:
A:--5slide----5---------5--2-3-5---------: x1
E:---------------------------------------:

G:----------5-7----------------------------:
D:-----------------3h5-3----3h5-3----------:
A:--5 slide-----5---------5----------3-5---: x2
E:-----------------------------------------:


G:---------5-7----------------------------------5-7-:
D:---------------3h5-3-----3h5-3-------3--5--7------:
A:--5 slide---5---------5---------3-5---------------: 
E:--------------------------------------------------:

Puis une petit solo que j'ai pas réussi à déchiffrer parfaitement, je le mets dès que je peux.


Refrain 3:29  :


G:---------------------------------------:
D:---------------3h5-3-----3h5-3---------: x3
A:--5 slide---5---------5---------3------:
E:---------------------------------------:

G:----------------------------777777-----slide777777---slide777777----slide777777-:
D:---------------3h5-3-----3h5----------------------------------------------------:
A:--5 slide---5---------5---------------------------------------------------------: 
E:--------------------------------------------------------------------------------:

G:---------------:
D:---------------:
A:--slide 5------: x4
E:---------------:


Outro : 


G:---------------------------------------:
D:---------------3h5-3-----3h5-3---------: x1
A:--5 slide---5---------5---------3------:
E:---------------------------------------:

G:------------------------------------:
D:---------------3h5-3-----------3----:
A:--5 slide---5---------5---3-55---5--:
E:------------------------------------:

G:---------------------------------------:
D:---------------3h5-3-----3h5-3---------: x1
A:--5 slide---5---------5---------3------:
E:---------------------------------------:

G:----------------5---7--5----------------------:
D:------3--5--7--------------7--5--3---3--5-3---: x1
A:--5-------------------------------------------:
E:----------------------------------------------:

G:----5h7-5----------------------------:
D:-------------3h5-3----3h5-3----------: x1
A:--5--------5--------5---------3------:
E:-------------------------------------:

G:---------------------------------------------:
D:--------------------------------------15-----: x1
A:--5 slide--------17-17-17-17--15-1717---17--:
E:---------------------------------------------:

G:---------------------------------------:
D:---------------3h5-3-----3h5-3---------: x1
A:--5 slide---5---------5---------3------:
E:---------------------------------------:


G:----------------5---7777-7-777-7-:
D:------3--5--7--------------------: x1
A:--5------------------------------:
E:---------------------------------:



Voila :P , après 1h de boulot j'ai réussi à déchiffrer quasiment toute la partoche, je dis quasiment car il me manque encore le ptit solo avant le dernier refrain et les ptis coups de slap que le bassiste place de temps en temps, mais sinon c'est ça !! 

Bon Groove à tous !!!





























    
    

2 Commentaires

1 2 3 4 5
0 notes
#2
18/02/2015 18:41:16
Je suggère de prendre la partition une octave en dessous, ce qui implique de se désaccorder ou de prendre une 5 cordes!
Et niveau slap je dirai :
G|------------------|
D|------------------|
A|---------------3h5|
E|--3h5-X-X-X-X-----|
 Mais ça n'engage que moi hein
0
0
#1
13/02/2015 11:12:10

Pour le petit slap je pensais a ça , le solo c'est une autre histoire ....

G|----------------|----------------|-------------3h5|------
D|--------X--X----|----------------|--------X--X----|------
A|-------------3h5|-----OU---------|----------------|------
E|--3h5-X--X------|----------------|--3h5-X--X------|------

0
0

En Live

Fendermk a voté pour le message de Captain Biftek il y a 3 heures
JD78 vient tout juste de rejoindre la communauté Slappyto. Bienvenue ! il y a 18 heures
Grobass a commenté le topic [[Ibanez GSR200] Votre avis ?] de Torus il y a 19 heures
Torus vient tout juste de rejoindre la communauté Slappyto. Bienvenue ! il y a 23 heures
Lookersbass vient tout juste de rejoindre la communauté Slappyto. Bienvenue ! il y a 1 jour
Pouetiti vient tout juste de rejoindre la communauté Slappyto. Bienvenue ! il y a 2 jours
Basilou vient tout juste de rejoindre la communauté Slappyto. Bienvenue ! il y a 2 jours
Poopeye vient tout juste de rejoindre la communauté Slappyto. Bienvenue ! il y a 2 jours