ConnexionConnexionInscription
B E A D G
148 connectés Aller à Sweepyto Guitare

Oxmo Puccino & the Jazzbastards - Quoi qu'il en soit [ Artiste ]

Publié par le
12/01/2011
3888 vues
Débutant 1
http://www.youtube.com/watch?v=9nxYezktkTs
    
        

Oxmo Puccino & the jazzbastards                                                          
3-Quoi qu'il en soit  
Lipopette bar



Theme A                            

G||--------------------------------------|
D||-------------9--10------9--10------9--|
A||--7-----------------10---------10-----|
E||--------------------------------------|




Theme B                                              
 
--------------------------|--------------------------|
--------------------------|--------------------------|
-----2--3-----2--3-----2--|-----2--3-----2--3-----2--|
--0--------3--------3-----|-----------3--------3-----|


  
--------------------------|--------------------------|
--------------------------|--------------------------|
-----2--3-----2--3-----2--|-----2--3-----2--3-----2--|
-----------3--------3-----|--0--------3--------3-----|

   
--------------------------|--------------------------|
--------------------------|--------------------------|
-----2--3-----2--3-----2--|-----2--3-----2--3-----2--|
--0--------3--------3-----|-----------3--------3-----|

           
--------------------------|---------------------|
--------------------------|---------------------|
-----2--3-----2--3-----2--|---------------------|
-----------3--------3-----|--0--0---------------|

    
    

0 Commentaires : réagissez !

1 2 3 4 5
1 note
Notes pour Quoi Qu'il En Soit Basse Tab - (Oxmo Puccino & The Jazzbastards) | Slappyto : 2/5 sur 1 note
Aucun commentaire !

En Live

Cell a commenté le topic ["recherche" Digitech bass synth wah] de Cell il y a 2 heures
Cell et yvesson ont commenté le topic [Le Topic du Freepost 7] de Vikie il y a 2 heures
Cell a commenté le topic ["recherche" Digitech bass synth wah] de Cell il y a 2 heures
Yvesson a commenté le topic [Amateurs de photographie, bon-jour/soir !] de cha0s-the0ry il y a 16 heures
Yvesson, sam et YannGGP ont commenté le topic [La mort de Slappyto?] de kurt il y a 16 heures
Glimmerkajal vient tout juste de rejoindre la communauté Slappyto. Bienvenue ! il y a 3 jours
Wario a commenté le topic [videothèque des sons] de mr gone il y a 1 semaine
Lebollos59 vient tout juste de rejoindre la communauté Slappyto. Bienvenue ! il y a 1 semaine
GregRock vient tout juste de rejoindre la communauté Slappyto. Bienvenue ! il y a 1 semaine
Chris927 vient tout juste de rejoindre la communauté Slappyto. Bienvenue ! il y a 2 semaines