ConnexionConnexionInscription
B E A D G
134 connectés Aller à Sweepyto Guitare

Red Hot Chili Peppers - My friends

Publié par le
02/12/2007
33301 vues
Débutant 3
Vitesse NormaleNormal speed Vitesse RalentieSlow down speed
G-----------------|---------------------|
D-------3-----3---|---------------------|
A-5---5---------5-|--------3-3------3-4-|
E-----------------|-3----3--------5-----|

G-----------------|---------5-4--2---|
D-----2-3-------3-|-5----5-----------|
A-5---------------|------------------|
E-----------------|------------------|

G------------------|-------------|
D--------3---------|-------------|
A-5----5-----3-H-5-|--------3----|
E------------------|-3----3------|
Il s'agit du couplet de la chanson My friends. Une fois que vous serez dans le rythme, il n'y aura plus de problèmes :o)

0 Commentaires : réagissez !

1 2 3 4 5
0 notes
Aucun commentaire !

En Live

Yashodhakrshn vient tout juste de rejoindre la communauté Slappyto. Bienvenue ! il y a 2 heures
Deved vient tout juste de rejoindre la communauté Slappyto. Bienvenue ! il y a 1 jour
Quelqu'un vient tout juste de rejoindre la communauté Slappyto. Bienvenue ! il y a 4 jours
Riep vient tout juste de rejoindre la communauté Slappyto. Bienvenue ! il y a 1 semaine
Ichmul vient tout juste de rejoindre la communauté Slappyto. Bienvenue ! il y a 1 semaine
Gwenbasse vient tout juste de rejoindre la communauté Slappyto. Bienvenue ! il y a 1 semaine
Goldergol vient tout juste de rejoindre la communauté Slappyto. Bienvenue ! il y a 1 semaine
Omywish1 vient tout juste de rejoindre la communauté Slappyto. Bienvenue ! il y a 2 semaines