ConnexionConnexionInscription
B E A D G
224 connectés Aller à Sweepyto Guitare

Red Hot Chili Peppers - Breaking the girl

Publié par le
02/12/2007
26653 vues
Débutant 3
Vitesse NormaleNormal speed Vitesse RalentieSlow down speed
G---------------------|--------------------|
D----7---7----------7-|----7---7-----7-5---|
A------7--------7-9---|------7-----------7-|
E-5----------5--------|-5---------5--------|

G-------------------|--------------------|
D----7---7--------5-|----7---7----7---7--|
A------7---7-5--7---|------7--------7----|
E-5-----------------|-5---------5--------|
Très bon exercice pour perfectionner les sauts de cordes :o) .De plus c'est une très belle chanson, ce qui n'est pas déplaisant.

1 Commentaire

1 2 3 4 5
0 notes
#1
09/10/2013 13:29:02

j'adore !!!

utile pour muscler les doigts!!

 

0
0

En Live

Kyhr et Cell ont commenté le topic [La mort de Slappyto?] de kurt il y a 28 minutes
Kyhr, Cell et Malicia ont commenté le topic [Le Topic du Freepost 7] de Vikie il y a 1 semaine
Cell et Poppy ont voté pour le message de Poppyto il y a 1 mois
Cell a voté pour le message de MasterFailure il y a 1 mois
Cell a voté pour le message de grobass il y a 1 mois
Cell a commenté le topic [une chope s'il vous plait !] de Adrien21 il y a 1 mois